Search tabs:
Browse artists: 0-9 | A | B | C | D | E | F | G | H | I | J | K | L | M | N | O | P | Q | R | S | T | U | V | W | X | Y | Z
/ Dashboard Confessional / The Places You Have Come to Fear the Most (2001) / The Best Deceptions guitar tab

THE BEST DECEPTIONS - Dashboard Confessional

By:  *marc.ispass* RockStarSuprhero@aol.com

Alright, so, this is about flawless, I'm pretty sure.  My first time posting
a tab, but I'm almost positive.  A lot of Chris's songs are in open D tuning:
Starting from the low E : D A D F# A D
( Dmaj chord when strummed open.. it's the only way to play along with almost
every Dashboard song -- impress your friends! ) Alright, here goes..

Intro (2X)
d  |----------------------------------------------------|
A  |----------------------------------------------------|
F# |-------3---------3---------3------------------------|
D  |---------2-----2---2-----2---2---5-4-2-(slide)-4----|
A  |-----0-------4---------2----------------------------|
D  |---0------------------------------------------------|

Verse (6X)
d  |---0---00---00----0--0---00---0---00---0----0--0--0--0----|
A  |---0---00---00----0--0---00---0---00---0----0--0--0--0----|
F# |---0---00---00----0--0---00---0---00---0----0--0--0--0----|
D  |---0---00---00----4--4---44---4---44---4----5--4--2--4----|
A  |---0---00---00----4--4---44---2---22---2----0--0--0--0----|
D  |---0---00---00----0--0---00---0---00---0----0--0--0--0----|

        I heard      about  your trip.
        I heard      about  your souvenirs.
        I heard      about the cool breeze, in the cool nights,
    and the cool guys that you spent them with.
       I guess I should have heard of them from you.
       I guess I should have heard of them from you...

Chorus (9X)                                                      (fourth time only)
d |---0---00--0-0---0--0-----0-0-0--0---0-0--0-0-0--0-0---0-0------------0--------|
A |---0---00--0-0---0--0-----0-0-0--0---0-0--0-0-0--0-0---0-0-------/----0--------|
F#|---0---00--0-0---0--0-----8-8-8--8---8-8--3-3-3--3-3---8-8---o--/-----0 HOLD --|
D |---0---00--0-0---0--0-----7-7-7--7---7-7--5-5-5--5-5---7-7-----/--o---0--------|
A |---0---00--0-0---0--0-----0-0-0--0---0-0--0-0-0--0-0---0-0----/-------0--------|
D |---0---00--0-0---0--0-----0-0-0--0---0-0--0-0-0--0-0---0-0------------0--------|

        Don't you see,   don't you see           that the chara-...
      -ade                    is over ?                   And...
    all the "Best Deceptions" and the Clever Cover Story" awards
     ...            go to you.                                       So kiss me hard 'cause
       this will be the last time that I'll let you.
       You will be back some day   and this     awkward kiss
       that tells of other people's lips     will be of service
       to keeping you a-------------------------------
        way-------------------------------------------.

Intro

Verse

Chorus

Bridge (4x)                                                                 Last Time
                                                                            (Let Ring)
d |---0-0-0-0-0-0-0-0---0-0-0-0-0-0-0-0---0-0-0-0-0-0-0-0---0-0-0-0-0-0-0-0--|--0--|
A |---0-0-0-0-0-0-0-0---0-0-0-0-0-0-0-0---0-0-0-0-0-0-0-0---0-0-0-0-0-0-0-0--|--0--|
F#|---8-8-8-8-8-8-8-8---7-7-7-7-7-7-7-7---5-5-5-5-5-5-5-5---3-3-3-3-7-7-7-7--|--8--|
D |---7-7-7-7-7-7-7-7---7-7-7-7-7-7-7-7---5-5-5-5-5-5-5-5---2-2-2-2-7-7-7-7--|--7--|
A |---0-0-0-0-0-0-0-0---0-0-0-0-0-0-0-0---0-0-0-0-0-0-0-0---0-0-0-0-0-0-0-0--|--0--|
D |---0-0-0-0-0-0-0-0---0-0-0-0-0-0-0-0---0-0-0-0-0-0-0-0---0-0-0-0-0-0-0-0--|--0--|

     I'm waiting for blood...

                                                  ...calling too late

Well, I'm pretty sure that's mostly right.  I tried to imitate the rhythms as best I could,
as well as where the vocals should about fall.  Email me with comments.. peace!


==============================================================================


THE BEST DECEPTIONS - Dashboard Confessional

you have to tune to DADF#Ad
This is Patrick Wilson and i hope you like the tab.
Ive seen a tab of this before and i fixed it so this is right.

INTRO
d |---------------------------------------------------------------------------|
A |---------------------------------------------------------------------------|
F#|----------3-0-------3-0-------3-0------------------------------------------|
D |------------------0---------0-------5-4-2-/4--(X2)-------------------------|
A |-------0--------4---------2------------------------------------------------|
D |-----0---------------------------------------------------------------------|

VERSE CHORDS
d |-----0----0----0----0-0-0-0------------------------------------------------|
A |-----0----0----0----0-0-0-0------------------------------------------------|
F#|-----0----0----0----0-0-0-0------------------------------------------------|
D |-----0----4----4----5-4-2-4---(X6)-----Figure out the rhythm---------------|
A |-----0----4----2----0-0-0-0------------------------------------------------|
D |-----0----0----0----0-0-0-0------------------------------------------------|

CHORUS
d |-----0----7----5-----------------0-----------------------------------------|
A |-----0----7----5-----------------0--figure out the rhythm------------------|
F#|-----0----7----5-----------------0-----------------------------------------|
D |-----0----7----5-------(X9)------0--hold on the 4th time only--------------|
A |-----0----7----5-----------------0-----------------------------------------|
D |-----0----7----5-----------------0-----------------------------------------|

THERE IS A LITTLE PART AT THE END THAT IM
NOT SURE OF BUT THIS IS ALL RIGHT.

INTRO X2
VERSE CHORDS X6
CHORUS X9
INTRO X2
VERSE CHORDS X6
CHORUS X9
OTHER PART


===================================================================================

dashboard confessional-the Best Deceptions

tuning: Db Ab Db Gb Ab Db
Leave the Ab Db strings open the entire time you're strumming and strum them as well.

Intro
----------------------------------------------------
----------------------------------------------------
----------------------------------------------------
-----7--4-------7--4-------7--4--5--4--2--4---------
---5-------4--5-------2--5--------------------------
-0--------------------------------------------------

Verse (guitar 2 continues playin intro)
----------------------------------------------------
----------------------------------------------------
-7--7------7--7-------4--4--------------------------
-x--x------x--x-------x--x-------5--4--2--4---------
-5--5------4--4-------2--2-------2--2--2--2---------
-0--0------0--0-------0--0-------0--0--0--0---------

Chorus

----------------------------------------------------
----------------------------------------------------
-7-7-7-7-7-7-7-7---14-14-14-14---12-12-12-12--------
-7-7-7-7-7-7-7-7---14-14-14-14---12-12-12-12--------
-5-5-5-5-5-5-5-5---12-12-12-14---10-10-10-10--------
-0-0-0-0-0-0-0-0----0--0--0--0----0--0--0--0--------

Chorus B

----------------------------------------------------
-7-----------------14-14-14-14---12-12-12-12--------
-7-----------------14-14-14-14---12-12-12-12--------
-5-----------------12-12-12-14---10-10-10-10--------
-0------------------0--0--0--0----0--0--0--0--------

Outro

----------------------------------------------------
-7-------14-------12-------9-------11-------14------
-7---8x--14--8x--12---8x--9---4x--11--3x--14---1x---
-5-------12-------10-------7--------9-------12------
-0--------0--------0-------0--------0--------0------

Intro 2x
Verse 6x
Chorus 4x repeat
Chorusb 1x /
Chorus 5x /

Outro 4x
end on
------
--15--
------
--12--
------
------

any questions or comments feel free to email me. muskak35@hotmail.com


Dashboard Confessional albums
2003 A Mark, A Mission, A Brand, A Scar
2002 MTV Unplugged
2001 The Places You Have Come to Fear the Most
2000 The Swiss Army Romance
The Places You Have Come to Fear the Most tabs
01The Brilliant Dance tabbass tab
02Screaming Infidelities tabbass tab
03The Best Deceptions tabbass tab
04This Ruined Puzzle tabbass tab
05Saints and Sailors tabbass tab
06The Good Fight tabbass tab
07Standard Lines tabbass tab
08Again I Go Unnoticed tabbass tab
09The Places You Have Come to Fear the Most tabbass tab
10This Bitter Pill tabbass tab

 

1