Search tabs:
Browse artists: 0-9 | A | B | C | D | E | F | G | H | I | J | K | L | M | N | O | P | Q | R | S | T | U | V | W | X | Y | Z
/ Dashboard Confessional / The Places You Have Come to Fear the Most (2001) / The Good Fight guitar tab

Tune down - (Eb, Ab, Db, Gb, Bb, Eb)

|-----4p0------2p0----------0--------2p0----------4p0------2p0------0----------
|---0--------0-----4p0----0---0----0-----4p0----0--------0-----4p0--2----------
|-6--------4------------2--------4------------6--------4------------2----------
|-------------------------------------------------------------------0-0-0-0-0-0
|------------------------------------------------------------------------------
|------------------------------------------------------------------------------

|-0-------------0------------------0----------------------0----------
|-0-------------0------------------0----------------------0----------
|-1-------------2------------------6----------------------2----------
|-2-------------2------------------6----------------------2----------
|-2-------------x------------------4----------------------0----------
|-0-------------2------------------x----------------------x----------
   Consider the odds, consider the obvious, the martyr is meaningless,

|----------------0--------------------0----------------------0-----
|----------------0--------------------0----------------------0-----
|----------------1--------------------2----------------------6-----
|----------------2--------------------2----------------------6-----
|----------------2--------------------x----------------------4-----
|----------------0--------------------2----------------------x-----
the campaign has died. In the planning stages and the fallen faces,

|----------------0----------------------0-----
|----------------0----------------------0-----
|----------------2----------------------1-----
|----------------2----------------------2-----
|----------------0----------------------2-----
|----------------x----------------------0-----
are the singular proof that it was ever alive.

|--------------0------------------0-----------------------0--------
|--------------0------------------0-----------------------0--------
|--------------2------------------6-----------------------2--------
|--------------2------------------6-----------------------2--------
|--------------x------------------4-----------------------x--------
|--------------2------------------x-----------------------0--------
This purchased rebellion has been outbidded, denounced and rescinded

|---------------0--------0-------------0-------------0----
|---------------0--------0-------------0-------------0----
|---------------1--------2-------------6-------------2----
|---------------2--------4-------------6-------------2----
|---------------2--------4-------------4-------------0----
|---------------0------------------------------------x----
and left to die, championless, championless, championless

|--0-------------0---------0-------------0----------
|--0-------------0---------0-------------0----------
|--1-------------0---------0-------------0----------
|--2-------------9---------7-------------7----------
|--2-------------9---------7-------------7----------
|--x-------------7---------5-------------5----------
    I begged you not to go, I begged you, I pleaded.

|-0----------------0--------------0---------------------0------------
|-0----------------0--------------0---------------------0------------
|-1----------------0--------------0---------------------0------------
|-2----------------9--------------7---------------------7------------
|-2----------------9--------------7---------------------7------------
|-x----------------7--------------5---------------------5------------
 Claimed you as my only hope, and watched the floor as you retreated.

|----------------0--------0-------------0-----------
|----------------0--------0-------------0-----------
|-1--------------0--------0-------------0-----------
|-2--------------9--------7-------------7-----------
|-2--------------9--------7-------------7-----------
|-x--------------7--------5-------------5-----------
   I begged you not to go, I begged you, I pleaded.

|-0----------------0--------------0---------------------0-------------
|-0----------------0--------------0---------------------0-------------
|-1----------------0--------------0---------------------0-------------
|-2----------------9--------------7---------------------7-------------
|-2----------------9--------------7---------------------7-------------
|-x----------------7--------------5---------------------5-------------
 Claimed you as my only hope, and watched the floor as you retreated.

|-0-----------------0---------------0--------------0----------
|-0-----------------0---------------0--------------0----------
|-1-----------------2---------------6--------------6----------
|-2-----------------4---------------6--------------7----------
|-2-----------------4---------------4--------------7----------
|-x------------------------------------------------5----------
 Hope has sprung a perfect dive, a perfect day, a perfect lie

|-0---------------0---------0--------------0--------0---------------0------
|-0---------------0---------0--------------0--------0---------------0------
|-1---------------2---------6--------------2--------1---------------2------
|-2---------------2---------6--------------2--------2---------------2------
|-2---------------x---------4--------------x--------2---------------x------
|-0---------------2---------x--------------0--------x---------------2------
 A slowly crafted monologue conceding your defeat. That it was ever alive

|---0---------------0------------------0-----------------------0---------
|---0---------------0------------------0-----------------------0---------
|---1---------------2------------------6-----------------------6---------
|---2---------------4------------------6-----------------------7---------
|-2-2---------------4------------------4-----------------------7---------
|-0-0----------------------------------------------------------5---------
     This purchased rebellion has been outbidded, denounced and rescinded

|---------------0--------0-------------0-------------0----
|---------------0--------0-------------0-------------0----
|---------------1--------2-------------6-------------2----
|---------------2--------4-------------6-------------2----
|---------------2--------4-------------4-------------x----
|---------------0--------x-------------x-------------0----
and left to die, championless, championless, championless

|-0-------------------------------------------------
|-0-------------------------------------------------
|-1-------------------------------------------------
|-2--------------9---------7-------------7----------
|-2--------------9---------7-------------7----------
|-x--------------7---------5-------------5----------
    I begged you not to go, I begged you, I pleaded.

|-0------------------------------------------------------------------
|-0------------------------------------------------------------------
|-1------------------------------------------------------------------
|-2----------------9--------------7---------------------7------------
|-2----------------9--------------7---------------------7------------
|-x----------------7--------------5---------------------5------------
 Claimed you as my only hope, and watched the floor as you retreated.

|---------------------------------------------------
|---------------------------------------------------
|-1-------------------------------------------------
|-2--------------9--------7-------------7-----------
|-2--------------9--------7-------------7-----------
|-x--------------7--------5-------------5-----------
   I begged you not to go, I begged you, I pleaded.

|-0-------------------------------------------------------------------
|-0-------------------------------------------------------------------
|-1-------------------------------------------------------------------
|-2----------------9--------------7---------------------7-------------
|-2----------------9--------------7---------------------7-------------
|-x----------------7--------------5---------------------5-------------
 Claimed you as my only hope, and watched the floor as you retreated.

|--------------------------------------------------
|-0-0-0-0-0-0-0-0-0-0-0-0--0-0-0-0-0-0-0-0-0-0-0-0-
|-6-6-6-6-6-6-6-6-6-6-6-6--8-8-8-8-8-8-8-8-8-8-8-8-
|-7-7-7-7-7-7-7-7-7-7-7-7--9-9-9-9-9-9-9-9-9-9-9-9-
|-4-4-4-4-4-4-4-4-4-4-4-4--6-6-6-6-6-6-6-6-6-6-6-6-
|-0-0-0-0-0-0-0-0-0-0-0-0--0-0-0-0-0-0-0-0-0-0-0-0-

|-0------0----------------------------------0-----------
|-0------0----------------------------------0-----------
|-1------2----------------------------------2-----------
|-2------2-------x------x--------14---------2-----------
|-2------x-------9------12-------12---------x-----------
|-x------2-------x------x-------------------0-----------
 Does it comfort you to know you fought the good fight?

|----------------------------0--------------
|----------------------------0--------------
|----------------------------2--------------
|-x-------x--------x-----14--2--------------
|-7-------9--------12----12--x--------------
|-x-------x--------x---------0--------------
  Basking in your victory, hollow and alone

|--0-------------------------------------0--------------------
|--0-------------------------------------0--------------------
|--1-------------------------------------2--------------------
|--2-----------x------x--------14--------2--------------------
|--2-----------9------12-------12--------x--------------------
|--x-----------x------x------------------0--------------------
 to boast your bitter bragging rights to anyone who'll listen

|----------------------------------------------2-
|----------------------------------------------0-
|----------------------------------------------2-
|-------------x---------x-------x-----14-------2-
|-------------7---------9-------12----12-------x-
|-------------x---------x-------x--------------0-
 While you're left with nothing tangible to gain

|-0--------0--------0--------0-
|-0--------0--------0--------0-
|-6--------8--------8--------2-
|-7--------7--------9--------2-
|-7--------7--------9--------1-
|-0--------0--------0--------0-

the last couple chords on the end are just whatever, Chris kind of goes crazy- you’ll have to listen to the CD in order to get them right, have fun. J


Dashboard Confessional albums
2003 A Mark, A Mission, A Brand, A Scar
2002 MTV Unplugged
2001 The Places You Have Come to Fear the Most
2000 The Swiss Army Romance
The Places You Have Come to Fear the Most tabs
01The Brilliant Dance tabbass tab
02Screaming Infidelities tabbass tab
03The Best Deceptions tabbass tab
04This Ruined Puzzle tabbass tab
05Saints and Sailors tabbass tab
06The Good Fight tabbass tab
07Standard Lines tabbass tab
08Again I Go Unnoticed tabbass tab
09The Places You Have Come to Fear the Most tabbass tab
10This Bitter Pill tabbass tab

 

1