Search tabs:
Browse artists: 0-9 | A | B | C | D | E | F | G | H | I | J | K | L | M | N | O | P | Q | R | S | T | U | V | W | X | Y | Z
/ Dashboard Confessional / The Places You Have Come to Fear the Most (2001) / This Bitter Pill guitar tab

THIS BITTER PILL
                      As recorded by Dashboard Confessional
         (From the 2001 Album THE PLACES YOU HAVE COME TO FEAR THE MOST)

Words by Chris Carraba

Music by Dashboard Confessional
Arranged by Chris Carraba
Transcribed by Dark horse

          Gm                    C                  Dsus2                Dm/A
      3 x 3 3 3 3          0 3 2 0 1 0          0 5 4 0 3 0          x 0 4 2 3 0

           G                   Ebm               Dadd9/F#                D7
      3 2 0 0 3 3          0 7 9 0 0 0          2 0 0 2 3 3          x x 0 2 1 2

         Dsus4                  D                   Am7
      x x 0 2 3 3          x x 0 2 3 2          x 0 2 0 1 3

Gtr I (Eb Ab Db Gb Bb Eb) - 'Untitled'

   Verse
              H=75
                  C                           Dsus2
   5/8           4/4
    Gtr I
    S E E. Q      Q  S E S E Q  S S   +S  S E Q  S E S E E
||------------||--0--0-0-0-0-0--0-0-|-(0)-0-0-0--0-0-0-0-0-|
||o-0h1p0-----||o-1--1-1-1-1-1--1-1-|-(1)-1-1-3--3-3-3-3-3-|
||---------0--||--0--0-0-0-0-0--0-0-|-(0)-0-0-0--0-0-0-0-0-|
||------------||--2--2-2-2-2-2--2-2-|-(2)-2-2-4--4-4-4-4-4-|
||o-----------||o-3--3-3-3-3-3--3-3-|-(3)-3-3-5--5-5-5-5-5-|
||------------||--------------------|----------------------|


              Gm                      Dm/A
  +E  S E S E Q  S E S   E Q  S E S E Q    S E S E Q  S E S E
|-(0)-0-0-0-0-0--0-0-0-|-0-0--0-0-0-0-0--|-0-0-0-0-0--0-0-0-0-|
|-(3)-3-3-3-3-0--0-0-0-|-0-0--0-0-0-0-3--|-3-3-3-3-3--3-3-3-3-|
|-(0)-0-0-0-0-0--0-0-0-|-0-0--0-0-0-0-2--|-2-2-2-2-2--2-2-2-2-|
|-(4)-4-4-4-4-0--0-0-0-|-0-0--0-0-0-0-4--|-4-4-4-4-4--4-4-4-4-|
|-(5)-5-5-5-5-x--x-x-x-|-x-x--x-x-x-x-0--|-0-0-0-0-0--0-0-0-0-|
|-------------3--3-3-3-|-3-3--3-3-3-3----|--------------------|


  C                           Dsus2                      Gm
  Q  S E S E Q  S S   +S  S E Q  S E S E E   +E  S E S E Q  S E S
|-0--0-0-0-0-0--0-0-|-(0)-0-0-0--0-0-0-0-0-|-(0)-0-0-0-0-0--0-0-0--|
|-1--1-1-1-1-1--1-1-|-(1)-1-1-3--3-3-3-3-3-|-(3)-3-3-3-3-0--0-0-0--|
|-0--0-0-0-0-0--0-0-|-(0)-0-0-0--0-0-0-0-0-|-(0)-0-0-0-0-0--0-0-0--|
|-2--2-2-2-2-2--2-2-|-(2)-2-2-4--4-4-4-4-4-|-(4)-4-4-4-4-0--0-0-0--|
|-3--3-3-3-3-3--3-3-|-(3)-3-3-5--5-5-5-5-5-|-(5)-5-5-5-5-x--x-x-x--|
|-------------------|----------------------|-------------3--3-3-3--|


       H1.0            2.75
 3/8    5/8                         1/2
  E Q    S E E. Q       S E S E Q    S E S E E   +E  S E S E
|-0-0--|------------||--0-0-0-0-0--|-0-0-0-0-0-|-(0)-0-0-0-0--|
|-0-0--|-0h1p0-----o||--0-0-0-0-0--|-0-0-0-0-0-|-(0)-0-0-0-0--|
|-0-0--|--------0---||--0-0-0-0-0--|-0-0-0-0-0-|-(0)-0-0-0-0--|
|-0-0--|------------||--0-0-0-0-0--|-0-0-0-0-0-|-(0)-0-0-0-0--|
|-x-x--|-----------o||--x-x-x-x-x--|-x-x-x-x-x-|-(x)-x-x-x-x--|
|-3-3--|------------||--3-3-3-3-3--|-3-3-3-3-3-|-(3)-3-3-3-3--|


 Chorus
  G                                                      Dadd9/F#
 4/4
  Q  S E S E Q  S S   +S  S E Q  S E S E E   +E  S E S E Q  S E S
|-3--3-3-3-3-3--3-3-|-(3)-3-3-3--3-3-3-3-3-|-(3)-3-3-3-3-3--3-3-3-|
|-3--3-3-3-3-3--3-3-|-(3)-3-3-3--3-3-3-3-3-|-(3)-3-3-3-3-3--3-3-3-|
|-0--0-0-0-0-0--0-0-|-(0)-0-0-0--0-0-0-0-0-|-(0)-0-0-0-0-2--2-2-2-|
|-0--0-0-0-0-0--0-0-|-(0)-0-0-0--0-0-0-0-0-|-(0)-0-0-0-0-0--0-0-0-|
|-2--2-2-2-2-2--2-2-|-(2)-2-2-2--2-2-2-2-2-|-(2)-2-2-2-2-0--0-0-0-|
|-3--3-3-3-3-3--3-3-|-(3)-3-3-3--3-3-3-3-3-|-(3)-3-3-3-3-2--2-2-2-|


                                         Ebm
  E Q  S E S E Q    S E S E Q  S E S E   Q  S E S E Q  S S
|-3-3--3-3-3-3-3--|-3-3-3-3-3--3-3-3-3-|-0--0-0-0-0-0--0-0-|
|-3-3--3-3-3-3-3--|-3-3-3-3-3--3-3-3-3-|-0--0-0-0-0-0--0-0-|
|-2-2--2-2-2-2-2--|-2-2-2-2-2--2-2-2-2-|-0--0-0-0-0-0--0-0-|
|-0-0--0-0-0-0-0--|-0-0-0-0-0--0-0-0-0-|-9--9-9-9-9-9--9-9-|
|-0-0--0-0-0-0-0--|-0-0-0-0-0--0-0-0-0-|-7--7-7-7-7-7--7-7-|
|-2-2--2-2-2-2-2--|-2-2-2-2-2--2-2-2-2-|-0--0-0-0-0-0--0-0-|


                                     D7
  +S  S E Q  S E S E E   +E  S E S E Q  S E S   E Q  S E S E Q
|-(0)-0-0-0--0-0-0-0-0-|-(0)-0-0-0-0-2--2-2-2-|-2-2--2-2-2-2-2--|
|-(0)-0-0-0--0-0-0-0-0-|-(0)-0-0-0-0-1--1-1-1-|-1-1--1-1-1-1-1--|
|-(0)-0-0-0--0-0-0-0-0-|-(0)-0-0-0-0-2--2-2-2-|-2-2--2-2-2-2-2--|
|-(9)-9-9-9--9-9-9-9-9-|-(9)-9-9-9-9-0--0-0-0-|-0-0--0-0-0-0-0--|
|-(7)-7-7-7--7-7-7-7-7-|-(7)-7-7-7-7----------|-----------------|
|-(0)-0-0-0--0-0-0-0-0-|-(0)-0-0-0-0----------|-----------------|


                       G
  S E S E Q  S E S E   Q  S E S E Q  S S   +S  S E Q  S E S E E
|-2-2-2-2-2--2-2-2-2-|-3--3-3-3-3-3--3-3-|-(3)-3-3-3--3-3-3-3-3--|
|-1-1-1-1-1--1-1-1-1-|-3--3-3-3-3-3--3-3-|-(3)-3-3-3--3-3-3-3-3--|
|-2-2-2-2-2--2-2-2-2-|-0--0-0-0-0-0--0-0-|-(0)-0-0-0--0-0-0-0-0--|
|-0-0-0-0-0--0-0-0-0-|-0--0-0-0-0-0--0-0-|-(0)-0-0-0--0-0-0-0-0--|
|--------------------|-2--2-2-2-2-2--2-2-|-(2)-2-2-2--2-2-2-2-2--|
|--------------------|-3--3-3-3-3-3--3-3-|-(3)-3-3-3--3-3-3-3-3--|


              Dadd9/F#
  +E  S E S E Q  S E S   E Q  S E S E Q    S E S E Q  S E S E
|-(3)-3-3-3-3-3--3-3-3-|-3-3--3-3-3-3-3--|-3-3-3-3-3--3-3-3-3-|
|-(3)-3-3-3-3-3--3-3-3-|-3-3--3-3-3-3-3--|-3-3-3-3-3--3-3-3-3-|
|-(0)-0-0-0-0-2--2-2-2-|-2-2--2-2-2-2-2--|-2-2-2-2-2--2-2-2-2-|
|-(0)-0-0-0-0-0--0-0-0-|-0-0--0-0-0-0-0--|-0-0-0-0-0--0-0-0-0-|
|-(2)-2-2-2-2-0--0-0-0-|-0-0--0-0-0-0-0--|-0-0-0-0-0--0-0-0-0-|
|-(3)-3-3-3-3-2--2-2-2-|-2-2--2-2-2-2-2--|-2-2-2-2-2--2-2-2-2-|


  Am7                                                    D7
  Q  S E S E Q  S S   +S  S E Q  S E S E E   +E  S E S E Q  S E S
|-3--3-3-3-3-3--3-3-|-(3)-3-3-3--3-3-3-3-3-|-(3)-3-3-3-3-2--2-2-2--|
|-1--1-1-1-1-1--1-1-|-(1)-1-1-1--1-1-1-1-1-|-(1)-1-1-1-1-1--1-1-1--|
|-0--0-0-0-0-0--0-0-|-(0)-0-0-0--0-0-0-0-0-|-(0)-0-0-0-0-2--2-2-2--|
|-2--2-2-2-2-2--2-2-|-(2)-2-2-2--2-2-2-2-2-|-(2)-2-2-2-2-0--0-0-0--|
|-0--0-0-0-0-0--0-0-|-(0)-0-0-0--0-0-0-0-0-|-(0)-0-0-0-0-----------|
|-------------------|----------------------|-----------------------|


                                         Am7
  E Q  S E S E Q    S E S E Q  S E S E   Q  S E S E Q  S S
|-2-2--2-2-2-2-2--|-2-2-2-2-2--2-2-2-2-|-3--3-3-3-3-3--3-3-|
|-1-1--1-1-1-1-1--|-1-1-1-1-1--1-1-1-1-|-1--1-1-1-1-1--1-1-|
|-2-2--2-2-2-2-2--|-2-2-2-2-2--2-2-2-2-|-0--0-0-0-0-0--0-0-|
|-0-0--0-0-0-0-0--|-0-0-0-0-0--0-0-0-0-|-2--2-2-2-2-2--2-2-|
|-----------------|--------------------|-0--0-0-0-0-0--0-0-|
|-----------------|--------------------|-------------------|


                                     D7
  +S  S E Q  S E S E E   +E  S E S E Q  S E S   E Q  S E S E Q
|-(3)-3-3-3--3-3-3-3-3-|-(3)-3-3-3-3-2--2-2-2-|-2-2--2-2-2-2-2--|
|-(1)-1-1-1--1-1-1-1-1-|-(1)-1-1-1-1-1--1-1-1-|-1-1--1-1-1-1-1--|
|-(0)-0-0-0--0-0-0-0-0-|-(0)-0-0-0-0-2--2-2-2-|-2-2--2-2-2-2-2--|
|-(2)-2-2-2--2-2-2-2-2-|-(2)-2-2-2-2-0--0-0-0-|-0-0--0-0-0-0-0--|
|-(0)-0-0-0--0-0-0-0-0-|-(0)-0-0-0-0----------|-----------------|
|----------------------|----------------------|-----------------|


                       G
  S E S E Q  S E S E   Q  S E S E Q  S S   +S  S E Q  S E S E E
|-2-2-2-2-2--2-2-2-2-|-3--3-3-3-3-3--3-3-|-(3)-3-3-3--3-3-3-3-3--|
|-1-1-1-1-1--1-1-1-1-|-3--3-3-3-3-3--3-3-|-(3)-3-3-3--3-3-3-3-3--|
|-2-2-2-2-2--2-2-2-2-|-0--0-0-0-0-0--0-0-|-(0)-0-0-0--0-0-0-0-0--|
|-0-0-0-0-0--0-0-0-0-|-0--0-0-0-0-0--0-0-|-(0)-0-0-0--0-0-0-0-0--|
|--------------------|-2--2-2-2-2-2--2-2-|-(2)-2-2-2--2-2-2-2-2--|
|--------------------|-3--3-3-3-3-3--3-3-|-(3)-3-3-3--3-3-3-3-3--|


                                                          D.C.
              Gm
  +E  S E S E Q  S E S   E Q  S E S E Q    S E S E Q  S E S E
|-(3)-3-3-3-3-0--0-0-0-|-0-0--0-0-0-0-0--|-0-0-0-0-0--0-0-0-0----||
|-(3)-3-3-3-3-0--0-0-0-|-0-0--0-0-0-0-0--|-0-0-0-0-0--0-0-0-0---o||
|-(0)-0-0-0-0-0--0-0-0-|-0-0--0-0-0-0-0--|-0-0-0-0-0--0-0-0-0----||
|-(0)-0-0-0-0-0--0-0-0-|-0-0--0-0-0-0-0--|-0-0-0-0-0--0-0-0-0----||
|-(2)-2-2-2-2-x--x-x-x-|-x-x--x-x-x-x-x--|-x-x-x-x-x--x-x-x-x---o||
|-(3)-3-3-3-3-3--3-3-3-|-3-3--3-3-3-3-3--|-3-3-3-3-3--3-3-3-3----||


   Outro
    G                           Dsus2                      Ebm
               <
    Q  S E S E Q  S S   +S  S E Q  S E S E E   +E  S E S E Q  S E S
||--3--3-3-3-3-3--3-3-|-(3)-3-3-x--x-x-x-x-x-|-(0)-x-x-x-x-0--0-0-0-|
||o-3--3-3-3-3-3--3-3-|-(3)-3-3-3--3-3-3-3-3-|-(3)-3-3-3-3-0--0-0-0-|
||--0--0-0-0-0-0--0-0-|-(0)-0-0-0--0-0-0-0-0-|-(0)-0-0-0-0-0--0-0-0-|
||--0--0-0-0-0-0--0-0-|-(0)-0-0-4--4-4-4-4-4-|-(4)-4-4-4-4-9--9-9-9-|
||o-2--2-2-2-2-2--2-2-|-(2)-2-2-5--5-5-5-5-5-|-(5)-5-5-5-5-7--7-7-7-|
||--3--3-3-3-3-3--3-3-|-(3)-3-3--------------|-------------0--0-0-0-|


               Eb/D         D              G
  <                 <
  E Q  S E S E Q    S E S E Q  S E S E  3x W
|-0-0--0-0-0-0-0--|-0-0-0-0-2--2-2-2-2--||-3----*|
|-0-0--0-0-0-0-3--|-3-3-3-3-3--3-3-3-3-o||-3----*|
|-0-0--0-0-0-0-2--|-2-2-2-2-2--2-2-2-2--||-0----*|
|-9-9--9-9-9-9-0--|-0-0-0-0-0--0-0-0-0--||-0----*|
|-7-7--7-7-7-7----|--------------------o||-2----*|
|-0-0--0-0-0-0----|---------------------||-3----*|


Duration Legend
---------------
W - whole; H - half; Q - quarter; E - 8th; S - 16th; T - 32nd; X - 64th; a - acciaccatura
+ - note tied to previous; . - note dotted; .. - note double dotted
Uncapitalized letters represent notes that are staccato (1/2 duration)
Irregular groupings are notated above the duration line
Duration letters will always appear directly above the note/fret number it represents the
duration for.  Duration letters with no fret number below them represent rests.  Multi-
bar rests are notated in the form Wxn, where n is the number of bars to rest for.  Low
melody durations appear below the staff

Tablature Legend
----------------
 h   - hammer-on
 p   - pull-off
 b   - bend
 pb  - pre-bend
 r   - bend release (if no number after the r, then release immediately)
 /\  - slide into or out of (from/to "nowhere")
 s   - legato slide
 S   - shift slide
  - natural harmonic
[n]  - artificial harmonic
n(n) - tapped harmonic
 ~   - vibrato
 tr  - trill
 T   - tap
 TP  - trem. picking
 PM  - palm muting
\n/  - tremolo bar dip; n = amount to dip
 \n  - tremolo bar down
 n/  - tremolo bar up
/n\  - tremolo bar inverted dip
 =   - hold bend; also acts as connecting device for hammers/pulls
 <>  - volume swell (louder/softer)
 x   - on rhythm slash represents muted slash
 o   - on rhythm slash represents single note slash

Misc Legend
-----------
 |  - bar
||  - double bar
||o - repeat start
o|| - repeat end
*|  - double bar (ending)
 :  - bar (freetime)
 $  - Segno
 &  - Coda
Tempo markers -  = BPM(8/16=s8/s16), where s8 = swing 8ths, s16 = swing 16ths


***************************************************************************************
* Generated using Power Tab Editor by Brad Larsen - http://powertab.guitarnetwork.org *
***************************************************************************************


Dashboard Confessional albums
2003 A Mark, A Mission, A Brand, A Scar
2002 MTV Unplugged
2001 The Places You Have Come to Fear the Most
2000 The Swiss Army Romance
The Places You Have Come to Fear the Most tabs
01The Brilliant Dance tabbass tab
02Screaming Infidelities tabbass tab
03The Best Deceptions tabbass tab
04This Ruined Puzzle tabbass tab
05Saints and Sailors tabbass tab
06The Good Fight tabbass tab
07Standard Lines tabbass tab
08Again I Go Unnoticed tabbass tab
09The Places You Have Come to Fear the Most tabbass tab
10This Bitter Pill tabbass tab

 

1