Search tabs:
Browse artists: 0-9 | A | B | C | D | E | F | G | H | I | J | K | L | M | N | O | P | Q | R | S | T | U | V | W | X | Y | Z
/ Dashboard Confessional / The Swiss Army Romance (2000) / A Plain Morning guitar tab

eb--3---------------------0-------------------------X----
bb--3---------------------3-------------------------3----
Gb--0---------------------0-------------------------0----
Db--0---------------------X-------------------------4----
ab--2---------------------3-------------------------2----
eb--3---------------------x-------------------------x----

and my hope is feeling worn......I'm missing home...
eb-----------------------8-----------------------x----------
bb-----------------------8-----------------------x----------
Gb-----------------------0----------------------11----------
Db-----------------------0-----------------------9----------
ab-----------------------x-----------------------7----------
eb-----------------------8-----------------------0----------

and I'm glad you're not a part of this, cause there's parts of me...
eb--------------------------x-------------------------------------------
bb--------------------------3-------------------------------------------
Gb--------------------------0-------------------------------------------
Db--------------------------x-------------------------------------------
ab--------------------------3-------------------------------------------
eb--------------------------x-------------------------------------------

.......that will be missed
eb---------x----------------x-----x/-x----
bb--------10----------------7-----7/-8----
Gb--------12----------------9-----9/10---
Db--------12----------------9-----9/10---
ab--------10----------------7-----7/-8----
eb---------0----------------0-----0/-x----

.........and the phone is always dead to me, so I can tell...
eb--x-----------------------------x--------------------------
bb--3-----------------------------x--------------------------
Gb--0----------------------------11--------------------------
Db--x-----------------------------9--------------------------
ab--3-----------------------------7--------------------------
eb--x-----------------------------0--------------------------

you that the temperature is dropping and it feels like.........
eb------------x---------------------------------x-------------x-----
bb------------x---------------------------------8------------10-----
Gb------------11--------------------------------0-------------0-----
Db------------9---------------------------------5-------------0-----
ab------------10--------------------------------7-------------9-----
eb------------x---------------------------------x------------10-----

Chorus 1:

...........Its colder than it oughta be in march....
eb--x--------------------10-------------------
bb-12--------------------10-------------------
Gb--0---------------------0-------------------
Db-12---------------------0-------------------
Ab-10---------------------9-------------------
eb-10--------------------10-------------------

...and that's about a day or two ahead of my til i'm heading home
eb----------------------x--------------------------------x----------
bb----------------------3--------------------------------8----------
Gb----------------------0--------------------------------0----------
Db----------------------x--------------------------------5----------
Ab----------------------3--------------------------------7----------
eb----------------------x--------------------------------x----------

.......into your arms again....and the people here are asking after you...
eb-----x--------------------x----------------------------10-----------------
bb----10-------------------12----------------------------10-----------------
Gb-----0--------------------0-----------------------------0-----------------
Db-----0-------------------12-----------------------------0-----------------
Ab-----9-------------------10-----------------------------9-----------------
eb----10-------------------10----------------------------10-----------------

it doesn't make it easier...it doesn't make it easier...to be away
eb------------------x-----------------------------x----------x-----x----
bb------------------3-----------------------------8---------10----12----
Gb------------------0-----------------------------0----------0-----0----
Db------------------x-----------------------------5----------0----12----
Ab------------------3-----------------------------7----------9----10----
eb------------------x-----------------------------x---------10----10----

I'd like to hire a plane, and see you in the morning...when the day is...
eb----------------10---------------------------x---------------------x-----
bb----------------10---------------------------3---------------------8-----
Gb-----------------0---------------------------0---------------------0-----
Db-----------------0---------------------------x---------------------5-----
Ab-----------------9---------------------------3---------------------7-----
eb----------------10---------------------------x---------------------x-----

fresh, I'm coming home again, coming home again, coming home again
eb---------x---------------------x-----------------10--------------------x---
bb--------10--------------------12-----------------10--------------------3---
Gb---------0---------------------0------------------0--------------------0---
Db---------0--------------------12------------------0--------------------x---
Ab---------9--------------------10------------------9--------------------3---
eb--------10--------------------10-----------------10--------------------x---

when the day is fresh, I'm coming home again.....
eb---------x-----------------x------------------------x---
bb---------8----------------10-----------------------12---
Gb---------0-----------------0------------------------0---
Db---------5-----------------0-----------------------12---
Ab---------7-----------------9-----------------------10---
eb---------x----------------10-----------------------10---

Bridge:

....Its warmer where youre waiting, it feels more like july
eb---------------------------x------------------------------x--------
bb--------------------------13-----------------------------15--------
Gb---------------------------0-----------------------------12--------
Db--------------------------14-----------------------------14--------
ab--------------------------12-----------------------------15--------
eb--------------------------12------------------------------x--------

...there's pillows in their cases, and one of those is mine.
eb-------------------------x-----------------------------x-----
bb------------------------15----------------------------12-----
Gb------------------------14-----------------------------0-----
Db------------------------12----------------------------12-----
ab------------------------12----------------------------10-----
eb-------------------------x----------------------------10-----

So you wrote the words "I love you" and sprayed it with perfume
eb---------------------------x-----------------------------------x--------
bb--------------------------13----------------------------------15--------
Gb---------------------------0----------------------------------12--------
Db--------------------------14----------------------------------14--------
ab--------------------------12----------------------------------15--------
eb--------------------------12-----------------------------------x--------

its better than the fire is to heat this lonely room.
eb------------------x-----------------------------x-----
bb------------------15---------------------------12-----
Gb------------------14----------------------------0-----
Db------------------12---------------------------12-----
ab------------------12---------------------------10-----
eb------------------x----------------------------10-----

Its warmer where youre waiting, it feels more like July.
eb---------------------------x--------------------------x--------
bb--------------------------13-------------------------15--------
Gb---------------------------0-------------------------12--------
Db--------------------------14-------------------------14--------
ab--------------------------12-------------------------15--------
eb--------------------------12--------------------------x--------

It feels more like July.......
eb-------------------x---------------------------------
bb-------------------15--------------------------------
Gb-------------------14--------------------------------
Db-------------------12--------------------------------
ab-------------------12--------------------------------
eb-------------------x---------------------------------

Verse 2:

..........Its yet to be determined....but the air is thick
eb--3---------------------0-------------------------X----
bb--3---------------------3-------------------------3----
Gb--0---------------------0-------------------------0----
Db--0---------------------X-------------------------4----
ab--2---------------------3-------------------------2----
eb--3---------------------x-------------------------x----

and my hope is feeling worn......I'm missing home...
eb-----------------------8-----------------------x----------
bb-----------------------8-----------------------x----------
Gb-----------------------0----------------------11----------
Db-----------------------0-----------------------9----------
ab-----------------------x-----------------------7----------
eb-----------------------8-----------------------0----------

and I'm glad you're not a part of this, cause there's parts of me...
eb--------------------------x-------------------------------------------
bb--------------------------3-------------------------------------------
Gb--------------------------0-------------------------------------------
Db--------------------------x-------------------------------------------
ab--------------------------3-------------------------------------------
eb--------------------------x-------------------------------------------

.......that will be missed
eb---------x-----------------x-----x/-x---
bb--------10----------------7------7/-8---
Gb--------12----------------9------9/10---
Db--------12----------------9------9/10---
ab--------10----------------7------7/-8---
eb---------0----------------0------0/-x---

.........and the phone is always dead to me, so I can tell...
eb--x-----------------------------x---------------------------
bb--3-----------------------------x---------------------------
Gb--0----------------------------11---------------------------
Db--x-----------------------------9---------------------------
ab--3-----------------------------7---------------------------
eb--x-----------------------------0---------------------------

you that the temperature is dropping and it feels like.........
eb------------x---------------------------------x------------x-----
bb------------x---------------------------------8-----------10-----
Gb------------11--------------------------------0------------0-----
Db------------9---------------------------------5------------0-----
ab------------10--------------------------------7------------9-----
eb------------x---------------------------------x-----------10-----

Chorus 2:

...........Its colder than it oughta be in march....
eb--x---------------------10--------------------
bb-12---------------------10--------------------
Gb--0----------------------0--------------------
Db-12----------------------0--------------------
Ab-10----------------------9--------------------
eb-10---------------------10--------------------

...and that's about a day or two ahead of my til i'm heading home
eb----------------------x--------------------------------x----------
bb----------------------3--------------------------------8----------
Gb----------------------0--------------------------------0----------
Db----------------------x--------------------------------5----------
Ab----------------------3--------------------------------7----------
eb----------------------x--------------------------------x----------

.......into your arms again....and the people here are asking after you...
eb-----x--------------------x----------------------------10-----------------
bb----10-------------------12----------------------------10-----------------
Gb-----0--------------------0-----------------------------0-----------------
Db-----0-------------------12-----------------------------0-----------------
Ab-----9-------------------10-----------------------------9-----------------
eb----10-------------------10----------------------------10-----------------

it doesn't make it easier...it doesn't make it easier...to be away
eb------------------x-----------------------------x----------x-----x-----
bb------------------3-----------------------------8---------10----12-----
Gb------------------0-----------------------------0----------0-----0-----
Db------------------x-----------------------------5----------0----12-----
Ab------------------3-----------------------------7----------9----10-----
eb------------------x-----------------------------x---------10----10-----

I'd like to hire a plane, and see you in the morning...when the day is...
eb----------------10---------------------------x---------------------x-----
bb----------------10---------------------------3---------------------8-----
Gb-----------------0---------------------------0---------------------0-----
Db-----------------0---------------------------x---------------------5-----
Ab-----------------9---------------------------3---------------------7-----
eb----------------10---------------------------x---------------------x-----

fresh, I'm coming home again, coming home again, coming home again
eb---------x---------------------x-----------------10--------------------x---
bb--------10--------------------12-----------------10--------------------3---
Gb---------0---------------------0------------------0--------------------0---
Db---------0--------------------12------------------0--------------------x---
Ab---------9--------------------10------------------9--------------------3---
eb--------10--------------------10-----------------10--------------------x---

when the day is fresh, I'm coming home again.....
eb---------x-----------------x------------------------x---
bb---------8----------------10-----------------------12---
Gb---------0-----------------0------------------------0---
Db---------5-----------------0-----------------------12---
Ab---------7-----------------9-----------------------10---
eb---------x----------------10-----------------------10---
it shoud be easy to play with the music and the words...bye eee


Dashboard Confessional albums
2003 A Mark, A Mission, A Brand, A Scar
2002 MTV Unplugged
2001 The Places You Have Come to Fear the Most
2000 The Swiss Army Romance
The Swiss Army Romance tabs
01Screaming Infidelities tabbass tab
02The Sharp Hint Of New Tears tabbass tab
03Living In Your Letters tabbass tab
04The Swiss Army Romance tabbass tab
05Turpentine Chaser tabbass tab
06A Plain Morning tabbass tab
07Age Six Racer tabbass tab
08Again I Go Unnoticed tabbass tab
09Ender Will Save Us All tabbass tab
10Shirts And Gloves tabbass tab

 

1