Search tabs:
Browse artists: 0-9 | A | B | C | D | E | F | G | H | I | J | K | L | M | N | O | P | Q | R | S | T | U | V | W | X | Y | Z
/ Dashboard Confessional / The Swiss Army Romance (2000) / Again I Go Unnoticed guitar tab

this is a pretty cool song
Pretty easy, but the strumming is a little difficult because it is a fast beat, and it is the same throughout the entire song. I'm pretty sure this tab is correct...
so... enjoy!
THIS SONG IS IN OPEN TUNING A HALF STEP DOWN LIKE THIS: Db Ab Db Gb Ab Db

ok here's the cord progression for the verse

---0--------0--------0--------
---0--------0--------0--------
---7--------4--------2--------
---7--------4--------2--------     x2
---5--------2--------0--------
---0--------0--------0--------

now here's the cords for the chorus

---0--------0--------0--------0--------
---0--------0--------0--------0--------
---7--------2--------4--------0--------
---7--------2--------4--------5--------   x4       Then repeat verse and chorus again
---5--------0--------2--------5--------
---0--------0--------0--------5--------

Finally here is the bridge.

---0--------0-------0-------0--------
---0--------0-------0-------0--------
---0--------0-------7-------0--------
---2--------5-------7-------4--------     x4     And then do the verse one more time
---2--------5-------5-------4--------
---2--------5-------0-------4--------


Dashboard Confessional albums
2003 A Mark, A Mission, A Brand, A Scar
2002 MTV Unplugged
2001 The Places You Have Come to Fear the Most
2000 The Swiss Army Romance
The Swiss Army Romance tabs
01Screaming Infidelities tabbass tab
02The Sharp Hint Of New Tears tabbass tab
03Living In Your Letters tabbass tab
04The Swiss Army Romance tabbass tab
05Turpentine Chaser tabbass tab
06A Plain Morning tabbass tab
07Age Six Racer tabbass tab
08Again I Go Unnoticed tabbass tab
09Ender Will Save Us All tabbass tab
10Shirts And Gloves tabbass tab

 

1