Search tabs:
Browse artists: 0-9 | A | B | C | D | E | F | G | H | I | J | K | L | M | N | O | P | Q | R | S | T | U | V | W | X | Y | Z
/ Dashboard Confessional / The Swiss Army Romance (2000) / Age Six Racer guitar tab

Intro:

e--------------------------------------------------------------||
B---9---------------------------------------------------------o||
G--------------------------------------------------------------||
D------8--10--11--10/6---------6-------------------------------||
A-----------------------4--------4---------3-4----------------o||
E-------------------------6--------6--0--4-----04--6--2-------||
Chorus:
e----------------------------------------------------------------
B----------------------------------------------------------------
G----6----------------------------6------------------------------
D----6----6--------8-------4------6-------------------6----------
A----4----6--------8-------4------4-------------------6----------
E---------4--------6-------2-------------------------4----------
               So long sweet summer I stumbled upon you and gratefully basked
e----------------------------------------------------------------
B----------------------------------------------------------------
G-----------------------6----------------------------------------
D--------8-------4------6-----6---------8---------4--------------
A--------8-------4------4-----6---------8---------4--------------
E--------6-------2------------4---------6--------2--------------

e----------------------------------------------------------------
B----------------------------------------------------------------
G----6-----------------------------------------------------------
D----4-------------------6---------------8-------4---------------
A----4-------------------6---------------8-------4---------------
E------------------------4---------------6------2---------------
   I     fell into you  now your gracefully  falling  a  way.

1st Verse:
e----------------------------------------------------------------
B------6---------------------------------------------------------
G-----6-6------------5------------------6----------3-------------
D----6-- 6--------- 6-6----------------8-8--------4-4------------
A---4--------------6---6--------------8---8------4---4-----------
E-----------------4-----------------6----------2----------------
            hey                thanks, thanks for that  summer

e----------------------------------------------------------------
B------6---------------------------------------------------------
G-----6-6------------5------------------6---------------3--------
D----6-- 6--------- 6-6----------------8-8-------------4-4-------
A---4--------------6---6--------------8---8-----------4---4------
E-----------------4-----------------6---------------2-----------
Its   cold where your going I hope that your hearts always  warm


e----------------------------------------------------------------
B------6---------------------------------------------------------
G-----6-6------------5------------------6----------3-------------
D----6-- 6--------- 6-6----------------8-8--------4-4------------
A---4--------------6---6--------------8---8------4---4-----------
E-----------------4-----------------6----------2----------------
I gave you the best, I gave you the best that    I had

e----------------------------------------------------------------
B-------6--------------------------------------------------------
G------6-6------------------5------------------6----------3------
D-----6-- 6--------- ------6-6----------------8-8--------4-4-----
A----4--------------------6---6--------------8---8------4---4----
E------------------------4-----------------6----------2---------
 you passed on the letters and passed on the best that I had

 Chorus:
e----------------------------------------------------------------
B----------------------------------------------------------------
G----6----------------------------6------------------------------
D----6----6--------8-------4------6-------------------6----------
A----4----6--------8-------4------4-------------------6----------
E---------4--------6-------2-------------------------4----------


So, So long sweet summer I stumbled upon you and gratefully basked


e----------------------------------------------------------------
B----------------------------------------------------------------
G-----------------------6----------------------------------------
D--------8-------4------6-----6---------8---------4--------------
A--------8-------4------4-----6---------8---------4--------------
E--------6-------2------------4---------6--------2--------------
in your rays. So long sweet summer
e----------------------------------------------------------------
B----------------------------------------------------------------
G----6-----------------------------------------------------------
D----4-------------------6---------------8-------4---------------
A----4-------------------6---------------8-------4---------------
E------------------------4---------------6------2---------------
   I     fell into you  now your gracefully  falling  a  way.

e--------------------------------------------------------------||
B---9---------------------------------------------------------o||
G--------------------------------------------------------------||
D------8--10--11--10/6---------6-------------------------------||
A-----------------------4--------4---------3-4----------------o||
E-------------------------6--------6--0--4-----04--6--2-------||


2nd Verse:
e----------------------------------------------------------------
B----------------------------------------------------------------
G----------------------------------------------------------------
D----6------3/4----8--4----------------6-----3/4----8--4---------
A----6------3/4----8--4----------------6-----3/4----8--4---------
E----4------1/2----6--2----------------4-----1/2----6-2---------
                    I hate the  winter

e----------------------------------------------------------------
B----------------------------------------------------------------
G----------------------------------------------------------------
D---------6------3/4----8--4----------------6-----3/4----8---4---
A---------6------3/4----8--4----------------6-----3/4----8---4---
E---------4------1/2----6--2----------------4-----1/2----6--2---
In lexington                                             I hate the      winter

e----------------------------------------------------------------
B----------------------------------------------------------------
G----------------------------------------------------------------
D---------6------3/4----8--4----------6-----3/4---8---4----------
A---------6------3/4----8--4----------6-----3/4---8---4----------
E---------4------1/2----6--2----------4-----1/2---6---2----------
 In lexington                                              lexington


e----------------------------------------------------------------
B----------------------------------------------------------------
G----------------------------------------------------------------
D---------6------3/4----8--4----------6-----3/4---8---4----------
A---------6------3/4----8--4----------6-----3/4---8---4----------
E---------4------1/2----6--2----------4-----1/2---6---2----------
         lexington                                          lexington

e----------------------------------------------------------------
B---9------------------------------------------------------------
G----------------------------------------------------------------
D------8--10--11--10/6---------6---------------------------------
A-----------------------4--------4---------3-4-------------------
E-------------------------6--------6--0--4-----04--6--2---------

Sparta rules i need some more of their tabs, also marsvolta


Dashboard Confessional albums
2003 A Mark, A Mission, A Brand, A Scar
2002 MTV Unplugged
2001 The Places You Have Come to Fear the Most
2000 The Swiss Army Romance
The Swiss Army Romance tabs
01Screaming Infidelities tabbass tab
02The Sharp Hint Of New Tears tabbass tab
03Living In Your Letters tabbass tab
04The Swiss Army Romance tabbass tab
05Turpentine Chaser tabbass tab
06A Plain Morning tabbass tab
07Age Six Racer tabbass tab
08Again I Go Unnoticed tabbass tab
09Ender Will Save Us All tabbass tab
10Shirts And Gloves tabbass tab

 

1