Search tabs:
Browse artists: 0-9 | A | B | C | D | E | F | G | H | I | J | K | L | M | N | O | P | Q | R | S | T | U | V | W | X | Y | Z
/ Dashboard Confessional / The Swiss Army Romance (2000) / Ender Will Save Us All guitar tab

Ender Will Save Us All - DASCHBOARD CONFESSIONAL

This is another song that I love... too bad people are TABBING IT WRONG!!... o well...
this song is VERY easy... I think it was the first DC song I learned to play...
and it's 100%
correct... just like everything else I've tabbed... please email if you have any
problems... cou12gar@yahoo.com Thanks!!
                      - GuiltyasCharged

Tuning: Db(Db, Ab, Db, Gb, Bb, eb)


Verse
|-5-5-5-5-5-5-5-5-----------------5-5-5-5-5-5-5-5-5-5-5-5--5-5-5-5--5-5-5-5-
|-7-7-7-7-7-7-7-7-5-5-5-5-5-5-5-5-3-3-3-3-3-3-3-3-5-5-5-5--5-5-5-5--5-5-5-5-
|-7-7-7-7-7-7-7-7-5-5-5-5-5-5-5-5-4-4-4-4-4-4-4-4-7-7-7-7--7-7-7-7--7-7-7-7-
|-7-7-7-7-7-7-7-7-5-5-5-5-5-5-5-5-5-5-5-5-5-5-5-5-7-7-7-7--7-7-7-7--7-7-7-7-
|-5-5-5-5-5-5-5-5-3-3-3-3-3-3-3-3-------------------------------------------
|---------------------------------------------------------------------------

Chorus
|-5-5------------------4--4--------------------------------------------2-2----
|-7-7------------------5--5-------------------5-5----------------------3-3----
|-7-7------------------6--6-------------------5-5----------------------4-4----
|-7-7------------------7--7-------------------5-5----------------------4-4----
|-5-5-----------------(7)(7)------------------3-3----------------------2-2----
|-----------------------------------------------------------------------------
     I wanna give you       Whatever you need     What is it you need?     Is

------------------
------------------
------------------
------------------
------------------
------------------
 it what I need?  x2

-5-5--------------------4-------------------------2----------------5-5--------
-7-7--------------------5----------5--------------3----------------7-7--------
-7-7--------------------6----------5--------------4----------------7-7--------
-7-7--------------------7----------5--------------4----------------7-7--------
-5-5-------------------(7)---------3--------------2----------------5-5--------
------------------------------------------------------------------------------
     It's hard to explain how I am getting by on so little from you.   It's

-------------4-------------------------------2-------------------
-------------5-------------------------------3-------------------
-------------6-----------------5-5-----------4-------------------
-------------7-----------------5-5-----------4-------------------
------------(7)----------------3-3-----------2-------------------
-----------------------------------------------------------------
 hard to believe that I would let myself get so wrapped into you

|-5-----4-----------2--
|-7-----5-----5-----3--
|-7-----6-----5-----4--
|-7-----7-----5-----4--
|-5----(7)----3-----2--
|----------------------
 ^ about 8 strums each (play twice)

Palm muted (third time on not as heavily muted)
|-------------------------------------------------------------------
|-------------------------------------------------------------------
|-------------------------------------------------------------------
|-7-7-7-7-7-7-7-7-7-7-7-7-7-7-7-7-7-7-7-7-7-7-7-7-12-12--12--8-8--8-
|-5-5-5-5-5-5-5-5-3-3-3-3-3-3-3-3-5-5-5-5-5-5-5-5-10-10--10--5-5--5-
|-0-0-0-0-0-0-0-0-----------------5-5-5-5-5-5-5-5-------------------

Verse
|-5-5-5-5-5-5-5-5-----------------5-5-5-5-5-5-5-5-5-5-5-5--5-5-5-5--5-5-5-5-
|-7-7-7-7-7-7-7-7-5-5-5-5-5-5-5-5-3-3-3-3-3-3-3-3-5-5-5-5--5-5-5-5--5-5-5-5-
|-7-7-7-7-7-7-7-7-5-5-5-5-5-5-5-5-4-4-4-4-4-4-4-4-7-7-7-7--7-7-7-7--7-7-7-7-
|-7-7-7-7-7-7-7-7-5-5-5-5-5-5-5-5-5-5-5-5-5-5-5-5-7-7-7-7--7-7-7-7--7-7-7-7-
|-5-5-5-5-5-5-5-5-3-3-3-3-3-3-3-3-------------------------------------------
|---------------------------------------------------------------------------

Chorus
|-5-5------------------4--4--------------------------------------------2-2----
|-7-7------------------5--5-------------------5-5----------------------3-3----
|-7-7------------------6--6-------------------5-5----------------------4-4----
|-7-7------------------7--7-------------------5-5----------------------4-4----
|-5-5-----------------(7)(7)------------------3-3----------------------2-2----
|-----------------------------------------------------------------------------
     I wanna give you       Whatever you need     What is it you need?     Is

------------------
------------------
------------------
------------------
------------------
------------------
 it what I need?  x2

-5-5--------------------4-------------------------2----------------5-5--------
-7-7--------------------5----------5--------------3----------------7-7--------
-7-7--------------------6----------5--------------4----------------7-7--------
-7-7--------------------7----------5--------------4----------------7-7--------
-5-5-------------------(7)---------3--------------2----------------5-5--------
------------------------------------------------------------------------------
     It's hard to explain how I am getting by on so little from you.   It's

-------------4-------------------------------2-------------------
-------------5-------------------------------3-------------------
-------------6-----------------5-5-----------4-------------------
-------------7-----------------5-5-----------4-------------------
------------(7)----------------3-3-----------2-------------------
-----------------------------------------------------------------
 hard to believe that I would let myself get so wrapped into you

|-5-----4-----------2--
|-7-----5-----5-----3--
|-7-----6-----5-----4--
|-7-----7-----5-----4--
|-5----(7)----3-----2--
|----------------------
 ^ about 8 strums each (play twice)

Palm muted (third time on not as heavily muted)
|-------------------------------------------------------------------
|-------------------------------------------------------------------
|-------------------------------------------------------------------
|-7-7-7-7-7-7-7-7-7-7-7-7-7-7-7-7-7-7-7-7-7-7-7-7-12-12--12--8-8--8-
|-5-5-5-5-5-5-5-5-3-3-3-3-3-3-3-3-5-5-5-5-5-5-5-5-10-10--10--5-5--5-
|-0-0-0-0-0-0-0-0-----------------5-5-5-5-5-5-5-5-------------------


play last two chords (twice) again and link to outro

Outro
|----------------------------------------
|----------------------------------------
|----------------------------------------
|----------------------------------------
|-9-9-9-9--9-10-9-0-9-10-9-0--8-9h10p9-0-
|-0-0-0-0--0-0--0-0-9-9--0-0--8-8------0- x4

|------------------------------------------|-----
|------------------------------------------|-----
|------------------------------------------|-----
|------------------------------------------|--7--
|-9-9--9-9--9h10p9p0--9-10-9-0--8-9h10p9-0-|--5--
|-0-0--0-0------------9-9--9-0--8-8------0-|--0--
                                        x2


Dashboard Confessional albums
2003 A Mark, A Mission, A Brand, A Scar
2002 MTV Unplugged
2001 The Places You Have Come to Fear the Most
2000 The Swiss Army Romance
The Swiss Army Romance tabs
01Screaming Infidelities tabbass tab
02The Sharp Hint Of New Tears tabbass tab
03Living In Your Letters tabbass tab
04The Swiss Army Romance tabbass tab
05Turpentine Chaser tabbass tab
06A Plain Morning tabbass tab
07Age Six Racer tabbass tab
08Again I Go Unnoticed tabbass tab
09Ender Will Save Us All tabbass tab
10Shirts And Gloves tabbass tab

 

1