Search tabs:
Browse artists: 0-9 | A | B | C | D | E | F | G | H | I | J | K | L | M | N | O | P | Q | R | S | T | U | V | W | X | Y | Z
/ Dashboard Confessional / The Swiss Army Romance (2000) / Screaming Infidelities guitar tab

DASHBOARD CONFESSIONAL
PLACES YOU COME TO FEAR THE MOST
SCREAMING INFIDELITIES
Tabbed by al@onedollarshort.zzn.com

TUNING Eb Ab Db Gb Bb eb

CHORDS USES
F# - X00033
C# - X00232
Bbm7 - X20230
Bbm7sus4 - X20233
F? - 200032
F/C#sus2 - 200230

 Here's an example of the chord progression

    F#      C#        Bbm7      F?                                         F/C#sus2
|--3-3-3-2--2-2-2-2-0-0-0-2--2-2-2-2--|--3-3-3-2--2-2-2-2-0-0-0-2--2-2-2-2-0-0-0--|-
|--3-3-3-3--3-3-3-3-3-3-3-3--3-3-3-3--|--3-3-3-3--3-3-3-3-3-3-3-3--3-3-3-3-3-3-3--|-
|--0-0-0-2--2-2-2-2-2-2-2-0--0-0-0-0--|--0-0-0-2--2-2-2-2-2-2-2-0--0-0-0-0-2-2-2--|-
|--0-0-0-0--0-0-0-0-0-0-0-0--0-0-0-0--|--0-0-0-0--0-0-0-0-0-0-0-0--0-0-0-0-0-0-0--|-
|--0-0-0-0--0-0-0-0-2-2-2-0--0-0-0-0--|--0-0-0-0--0-0-0-0-2-2-2-0--0-0-0-0-0-0-0--|-
|-------------------------2--2-2-2-2--|-------------------------2--2-2-2-2-2-2-2--|-

VERSE 1

F#    C#                   Bbm7     F?
       im missing your bed i never sleep, avoiding the spots where

F#      C#                                   Bbm7  F?    F/C#sus2
we'd have to speak and this bottle of beast is taking me home.

F#     C#                     Bbm7       F?
       im cuddling close to blankets and sheets. you're not alone

F#      C#                                      Bbm7         F?   F/C#sus2
and you're not discreet. you make sure i know, whose taking you home.

F#     C#                     Bbm7  F?
        im reading your note over again.  there is not a word

F#      C#                                          Bbm7     F?      F/C#sus2
that i comprehend except when you signed it "i will love you always and forever."

Next bit (pre-chorus)

Guitar 1
           C#                Bbm7            F/C#sus2             Bbm7sus4
|--2-2-2-2-2-2-2-2-2-0-0-0-0-0-0-0-0-0-0-0-0-0-0-0-0-0-0-0-0-3-3-3-3-3-3-3-3-3-3--|
|--3-3-3-3-3-3-3-3-3-3-3-3-3-3-3-3-3-3-3-3-3-3-3-3-3-3-3-3-3-3-3-3-3-3-3-3-3-3-3--|
|--2-2-2-2-2-2-2-2-2-2-2-2-2-2-2-2-2-2-2-2-2-2-2-2-2-2-2-2-2-2-2-2-2-2-2-2-2-2-2--|
|--0-0-0-0-0-0-0-0-0-0-0-0-0-0-0-0-0-0-0-0-0-0-0-0-0-0-0-0-0-0-0-0-0-0-0-0-0-0-0--|
|--------------------2-2-2-2-2-2-2-2-2-0-0-0-0-0-0-0-0-0-0-0-2-2-2-2-2-2-2-2-2-2--|
|--------------------------------------2-2-2-2-2-2-2-2-2-2-2----------------------|

guitar 2
e|-2h3-5--5-3-2--5--5-5p3-2--0--2--3--3-3--3-3-3-0-0--4--5--5-5-5-5--5-5-5-5--5-5-|
b|--------------------------------------------------------------------------------|

CHORUS

C#                              Bbm7                      F/C#sus2
As for now I'm gonna hear the saddest songs, and sit alone and wonder, how you're

Bbm7sus4     C#                    Bbm7                           F/C#sus2  Bbm7sus4
making out, but as for me i wish that i was anywhere with anyone making out.


VERSE 2 (same as the other verse, here are the lyrics)

I'm missing your laugh, how did it break? And when did your eyes begin to look fake I hope you're as happy as you are pretending. I'm missing your bed, I never sleep. Avoiding the spots where we'd have to sleep. And this bottle of beast is taking me home.


OUTRO
Your hair. Its everywhere. Screaming infidelities. Taking its wear.
(i just use the chorus chords but just different strumming)


Dashboard Confessional albums
2003 A Mark, A Mission, A Brand, A Scar
2002 MTV Unplugged
2001 The Places You Have Come to Fear the Most
2000 The Swiss Army Romance
The Swiss Army Romance tabs
01Screaming Infidelities tabbass tab
02The Sharp Hint Of New Tears tabbass tab
03Living In Your Letters tabbass tab
04The Swiss Army Romance tabbass tab
05Turpentine Chaser tabbass tab
06A Plain Morning tabbass tab
07Age Six Racer tabbass tab
08Again I Go Unnoticed tabbass tab
09Ender Will Save Us All tabbass tab
10Shirts And Gloves tabbass tab

 

1