Search tabs:
Browse artists: 0-9 | A | B | C | D | E | F | G | H | I | J | K | L | M | N | O | P | Q | R | S | T | U | V | W | X | Y | Z
/ Dashboard Confessional / The Swiss Army Romance (2000) / Shirts And Gloves guitar tab

song: "Shirts and Gloves"
artist: Dashboard Confessional
tabbed by: Legato

Tune guitar half-step down


Verse 1

     G                 Em                      C     Am
When I'm back from the road then you're out on it

eb|--------------------------------------0--0--0----0-0-0--0-0-0----0--|
Bb|--0-0-0-0-0-0-0-0-0-0-0-0-0-0-0-0-----0--0--0----0-0-0--0-0-0----0--|
Gb|--0-0-0-0-0-0-0-0-0-0-0-0-0-0-0-0-0-0-x--x--x----x-x-x--x-x-x----x--|
Db|--5-5-5-5-5-5-5-5-5-5-5-5-5-5-5-5-0-0-5--5--5----5-5-7--7-7-7----7--|
Ab|--7-7-7-7-6-6-6-----5-5-5-5-4-4-4-----3--3--3----3-3-5--5-5-5----5--|
Eb|--------------------------------------------------------------------|
and i'm tired of this distance and I believe it's over, it's over-rated.

         G                 Em           C         Am
And this phone tag game is endless the novelty is wearing

eb|--------------------------------------0--0-0-0-0----0--0-0-0----0--|
Bb|--0-0-0-0-0-0-0-0-0-0-0-0-0-0-0-0-----0--0-0-0-0----0--0-0-0----0--|
Gb|--0-0-0-0-0-0-0-0-0-0-0-0-0-0-0-0-0-0-x--x-x-x-x----x--x-x-x----x--|
Db|--5-5-5-5-5-5-5-5-5-5-5-5-5-5-5-5-0-0-5--5-5-5-5----7--7-7-7----7--|
Ab|--7-7-7-7-6-6-6-----5-5-5-5-4-4-4-----3--3-3-3-3----5--5-5-5----5--|
Eb|-------------------------------------------------------------------|
I'm hoping time will pass without any assistance or convincing.


Chorus

eb|---------------------------------------|
Bb|-----------------------0---------------|
Gb|-------0-------0-----------------------|
Db|-----9---0---7---0---5-------------/4--|
Ab|--10-------9-------7---------3-----/5--|
Eb|---------------------------------------|
Road rules apply there's so much action, you're getting busy.
eb|--------------------------------------------|
Bb|-------------------------0-----------0------|
Gb|-------0-------0-------0----0----------0----|
Db|-----9---0---7---0---5--------0-------------|
Ab|--10-------9-------7------------3--------5--|
Eb|--------------------------------------------|
So i'll call your cellular phone to tell you TV night was
eb|--------------------------------------------------|
Bb|-------------------------0------------------------|
Gb|-------0-------0-------0---------------------0----|
Db|-----9---0---7---0---5-------------------------4--|
Ab|--10-------9-------7---------2h3p2--3-----5-------|
Eb|--------------------------------------------------|
lonely without you and so am I... so am I.
eb|--------------------------------------------|
Bb|-------------------------0------------------|
Gb|-------0-------0-------0----0--------0------|
Db|-----9---0---7---0---5--------0--------0----|
Ab|--10-------9-------7------------3--------5--|
Eb|--------------------------------------------|
It seems our day keeps falling on a leap year.


Verse 2

G       Em                  C       Am
So many high points on this last leg.

eb|--------------------------------------0--0-0-0-0----0--0-0-0----0--|
Bb|--0-0-0-0-0-0-0-0-0-0-0-0-0-0-0-0-----0--0-0-0-0----0--0-0-0----0--|
Gb|--0-0-0-0-0-0-0-0-0-0-0-0-0-0-0-0-0-0-x--x-x-x-x----x--x-x-x----x--|
Db|--5-5-5-5-5-5-5-5-5-5-5-5-5-5-5-5-0-0-5--5-5-5-5----7--7-7-7----7--|
Ab|--7-7-7-7-6-6-6-----5-5-5-5-4-4-4-----3--3-3-3-3----5--5-5-5----5--|
Eb|-------------------------------------------------------------------|
I can't wait to recount them it seems like nothing's happened until I've shared them
with you.

    G                 Em                  C          Am
That note that you had called says you're half a day away

eb|--------------------------------------0--0-0-0-0----0--0-0-0----0--|
Bb|--0-0-0-0-0-0-0-0-0-0-0-0-0-0-0-0-----0--0-0-0-0----0--0-0-0----0--|
Gb|--0-0-0-0-0-0-0-0-0-0-0-0-0-0-0-0-0-0-x--x-x-x-x----x--x-x-x----x--|
Db|--5-5-5-5-5-5-5-5-5-5-5-5-5-5-5-5-0-0-5--5-5-5-5----7--7-7-7----7--|
Ab|--7-7-7-7-6-6-6-----5-5-5-5-4-4-4-----3--3-3-3-3----5--5-5-5----5--|
Eb|-------------------------------------------------------------------|
and you are heading home just in time for me, for me to leave.


Chorus

eb|-----------------------------------------|
Bb|-------------------------0---------------|
Gb|-------0-------0-------0----0------------|
Db|-----9---0---7---0---5--------0-------4--|
Ab|--10-------9-------7------------3-----5--|
Eb|-----------------------------------------|
Road rules apply there's so much action I'm getting busy.
eb|-------------------------------------------------|
Bb|-------------------------0-----------------------|
Gb|-------0-------0-------0----0-----0---------0----|
Db|-----9---0---7---0---5--------0-----0---------4--|
Ab|--10-------9-------7------------3--------5-------|
Eb|-------------------------------------------------|
So make sure that I'm up to date on TV night, I hate to miss out.
eb|-------------------------------------------------|
Bb|-------------------------0-----------------------|
Gb|-------0-------0-------0--------------------0----|
Db|-----9---0---7---0---5------------------------4--|
Ab|--10-------9-------7---------2h3p3-3-----5-------|
Eb|-------------------------------------------------|
I think I miss you most on Wednesdays and Saturdays.
eb|-----------------------------------|
Bb|-------------------------0---------|
Gb|-------0-------0-------0----0------|
Db|-----9---0---7---0---5--------0----|
Ab|--10-------9-------7------------3--|
Eb|-----------------------------------|
It seems our day keeps falling on a leap year.


Dashboard Confessional albums
2003 A Mark, A Mission, A Brand, A Scar
2002 MTV Unplugged
2001 The Places You Have Come to Fear the Most
2000 The Swiss Army Romance
The Swiss Army Romance tabs
01Screaming Infidelities tabbass tab
02The Sharp Hint Of New Tears tabbass tab
03Living In Your Letters tabbass tab
04The Swiss Army Romance tabbass tab
05Turpentine Chaser tabbass tab
06A Plain Morning tabbass tab
07Age Six Racer tabbass tab
08Again I Go Unnoticed tabbass tab
09Ender Will Save Us All tabbass tab
10Shirts And Gloves tabbass tab

 

1