Search tabs:
Browse artists: 0-9 | A | B | C | D | E | F | G | H | I | J | K | L | M | N | O | P | Q | R | S | T | U | V | W | X | Y | Z
/ Dashboard Confessional / The Swiss Army Romance (2000) / The Sharp Hint Of New Tears guitar tab

eb----2------0------3------0-----0-----2-----
Bb----3------3------0------0-----3-----3-----
Gb----2------3------0------0-----3-----2-----
Db----0------3------0------2-----3-----0-----
Ab----0------0------2------2-----0-----0-----
Eb----x------0------3------0-----0-----x-----

Chorus:
Something like this a couple of times. Listen for timing. Don't play the A to D until the last time.
eb----2------------0-----------0-----2----
Bb----3------------3-----------3-----3----
Gb----2------------2-----------3-----2----
Db----0-2-1-------0-----------3-----0----
Ab----0-------2-1--0--2-1------0-----0----
Eb----0------------0------2-1--0-----0----

Solo: Mostly like the Chorus, but emphasize the pull offs and hammer ons on the top string.
Have fun with the notes on the bottom three strings.
eb----2-----------2p0----------0h2----0-----2----
Bb----3-------------3------------3----3-----3----
Gb----2-------------2------------2----3-----2----
Db----0-2-1--------0------------0----3-----0----
Ab----0-------2-1---0--2-1-------0----0-----0----
Eb----0-------------0------2-1---0----0-----0----


well this is a pretty easy tab..thanks :P


Dashboard Confessional albums
2003 A Mark, A Mission, A Brand, A Scar
2002 MTV Unplugged
2001 The Places You Have Come to Fear the Most
2000 The Swiss Army Romance
The Swiss Army Romance tabs
01Screaming Infidelities tabbass tab
02The Sharp Hint Of New Tears tabbass tab
03Living In Your Letters tabbass tab
04The Swiss Army Romance tabbass tab
05Turpentine Chaser tabbass tab
06A Plain Morning tabbass tab
07Age Six Racer tabbass tab
08Again I Go Unnoticed tabbass tab
09Ender Will Save Us All tabbass tab
10Shirts And Gloves tabbass tab

 

1