Search tabs:
Browse artists: 0-9 | A | B | C | D | E | F | G | H | I | J | K | L | M | N | O | P | Q | R | S | T | U | V | W | X | Y | Z
/ Dave Matthews Band / Under The Table and Dreaming (1994) / Rhyme & Reason guitar tab

----------------------------------
Rhyme and Reason
----------------------------------
Transcribed by:
Sean Spicer (driver8@phy.duke.edu)
----------------------------------

VERSE
****Played Fast**** (16ths?)

Oh Well, oh well, so here.......

e------------------------------------------------|
B------------------------------------------------|
G-------3---------------------------9--------------| REPEAT
D-3/5--0--5\3--0---5---7--x-7-x-7-------10---------|
A-----------------x---x---x-x-x-x------------------|
E---------------/6---8----x-8-x-8--8--6------------|
                        ^^^^^^^
                        This is
                        The litte
                        Scuttle

CHORUS

My head....

        G       C       Bb/A#   Asus7(+9)
e----------------------------------------|
B----------------------------------------|
G---------------------------------5------|
D-------5-------5--------3--------5------|
A-------5(x)----3--------1---------------|
E-------3-------------------------5------|


EXIT

My Body...

e-----------------|
B-----------------|
G-----------------|
D--7--5--4--2---0-|
A---------------2-|
E--8--6--5--3-----|

One hint to this song...use lots of muting and sliding.




Here's another version from Matt Sellers:

e------------------------------------------------------
B------------------------------------------------------
G---------3----------------------------9------5--------
D--3/5--0-----------5---------7------------------------
A------------5/6-------7/8-----------------------------
E----------------6---------8--------8------6-----------



Dave Matthews Band albums
2003 Some Devil
2002 Busted Stuff
2001 Everyday
1998 Before These Crowded Streets
1997 Recently [EP]
1996 Crash
1994 Under The Table and Dreaming
1993 Remember Two Things
Under The Table and Dreaming tabs
01The Best Of What's Around tabbass tab
02What Would You Say tabbass tab
03Satellite tabbass tab
04Rhyme & Reason tabbass tab
05Typical Situation tabbass tab
06Dancing Nancies tabbass tab
07Ants Marching tabbass tab
08Lover Lay Down tabbass tab
09Jimi Thing tabbass tab
10Warehouse tabbass tab
11Pay For What You Get tabbass tab
1234 tabbass tab

 

1