Search tabs:
Browse artists: 0-9 | A | B | C | D | E | F | G | H | I | J | K | L | M | N | O | P | Q | R | S | T | U | V | W | X | Y | Z
/ / / guitar tab

tab for 'The Employment Pages' by 'Death Cab For Cutie'

verse

e ---0---0---0---0----------------
b -3---3---2---2-----2---2---2---2
g -----------------2---2---0---0--
d
a
e

the last time before the chorus it changes to

e ---0---0---0---0----------------
b -3---3---2---2-------------2---2
g -------------------2------------
d -----------------0---0-4-----4--
a -
e -

chorus:

4X
e ---0----------------------------
b -----2-5/7---2-------------2---2
g -2-----------------2------------
d -----------------0---0-4-----4--
a -
e -

2X
e -------0-------------0----------
b ---------------------5/7--------
g ---------------------------6----
d ---4/6-2---------4/6------------
a -0-------------0----------------
e -

 

"And it was true that I was truly failing."
-------------
-------------
-------------
---4-4-6-7---
---0-0-0-0---

----------------------
-------------7/2------
----------------------
---4-6-7--------------
---0-0-0--------------

--------------------------------------------------
--------2---2---2----2-------2----2----2---2-----
-----4----4---4---4-------4----4----4----4-------
----------------------------0---------------------
--------------------------------------------------
-----0-------------------------------------------- 
 

During the "calling around, but nothing was found" part, Ben simply plays a
D# repeatedly, then a D repeatedly (the keyboard sounds fill the rest of the
chord).


lyrics:

we spread out and occupy the cracks in the urban streets
idle now, i rearrange the furniture as you sleep
it's so appropriate the way we amplify the sound
and then the neighbors drop by and they ask to turn it down again
we spread out and everyone is frightfully more aware
so impressed the cocktail polotics and obscure details
and it was true that i was truly failing
but you were gone and i was home
calling around but nothing was found worthwhile.


albums
tabs

 

1