Search tabs:
Browse artists: 0-9 | A | B | C | D | E | F | G | H | I | J | K | L | M | N | O | P | Q | R | S | T | U | V | W | X | Y | Z
/ Default / Elocation (2003) / Movin' On guitar tab

Default
\"Movin\' On\"
From the album Elocation
Tab by Joe Costello (joseph.costello@villanova.edu)

Tuning: Drop-D (D A D G B e)

Symbols used:
=============
h = hammer-on
p = pull off
/ = slide up
\\ = slide down
X = muted strings

Intro:
Riff 1:		
					     (2x)
e|--------------------------------------------|
B|---------------------------------------2----|
G|-----------------11--------------4---------*|
D|----------7-------------------4-----4------*|
A|-------9------9--------0h2-2----------------|
D|----0---------------------------------------|

Verse 1:
w/Riff 1 (4x)
\"To take not give your only way
 You used up all I have each day
 Whispers of where your head has laid
 It\'s hard to ignore the things that they\"

Pre-Chorus:
e|------------------------------------------------------|
B|------------------------------------------------------|
G|------------------------------------------------------|
D|---5-X-X-5-X-X-5-X-X-5-X-X-7--7--7--7--7--7--7--------|
A|---5-X-X-5-X-X-5-X-X-5-X-X-7--7--7--7--7--7--7--------|
D|---5-X-X-5-X-X-5-X-X-5-X-X-7--7--7--7--7--7--7--12\\---|
   \"Say......\"

Chorus:
e|--------------------------------------------|
B|--------------------------------------------|
G|---4--4----7--7--7--7---2--2--2--2--2--2----|
D|---4--4----7--7--7--7---2--2--2--2--2--2----|
A|---2--2----5--5--5--5---0--0--0--0--0--0----|
D|--------------------------------------------|
   \"The last  time I    give in\"

e|----------------------------------------------------|
B|----------------------------------------------------|
G|---4--4----7--7--7--7------2-------2----------------|
D|---4--4----7--7--7--7----------2-------2---2h4-2p0--|
A|---2--2----5--5--5--5---0----0---0---0---0----------|
D|----------------------------------------------------|
  \"The next  time I\'m  leaving...\"

e|--------------------------------------------|
B|--------------------------------------------|
G|---4--4----7--7--7--7---2--2--2--2--2--2----|
D|---4--4----7--7--7--7---2--2--2--2--2--2----|
A|---2--2----5--5--5--5---0--0--0--0--0--0----|
D|--------------------------------------------|
    \"Sharin\' trust wore thin\"

e|-------------------------------------------|
B|-----------------------------------3-------|
G|---5-5-5-5-5-5-5-5-----------------2-------|
D|---5-5-5-5-5-5-5-5--5-4-0--5-4-0---0-------|
A|---3-3-3-3-3-3-3-3--5-4-0--5-4-0---0-------|
D|--------------------5-4-0--5-4-0---0-------|
    \"I\'m movin\'  on...\"

2nd Verse: Play Riff 1 (4x)
Play Pre-Chorus and Chorus Riffs

End of 2nd Chorus:
e|-------------------------------------|
B|-----------------------------3-------|
G|---5-5-5-5-5-5-5-5-----------2-------|
D|---5-5-5-5-5-5-5-5--5-4-0----0-------|
A|---3-3-3-3-3-3-3-3--5-4-0----0-------|
D|--------------------5-4-0----0-------|
    \"I\'m movin\'  on...\"

Bridge: 
						       (4x)
e|---------------------------------------------------------------|
B|---------------------------------------------------------------|
G|------------------------------------9/11-11-11p9--6--6--6--9--*|
D|---5--7--5--7--5--7--5--7--7h9-7\\5----------------------------*|
A|---------------------------------------------------------------|
D|---------------------------------------------------------------|
   I orignally had this tabbed for 2 guitars. Since they only have one guitarist
   I\'ve changed it to match what he plays. And this is pretty much what he plays
   live, I\'ve seen it.
   Also, thanks to threemounts1 for the correction with the notes. 

2nd Part: (with more distortion)
							(2x)
e|------------------------------------------------------------------|
B|------------------------------------------------------------------|
G|-------------------------------------/11-11-11-11-9--6--6--6--9--*|
D|---5-7---5-7---5-7---5-7---7h9-7\\5-------------------------------*|
A|---5-7---5-7---5-7---5-7------------------------------------------|
D|---5-7---5-7---5-7---5-7------------------------------------------|
   

Play the Pre-Chorus and Chorus riffs.
End by playing the Bridge riff 2x.

That should be it. If there\'s any comments, corrections, etc. let me know.

-Joe


Default albums
2003 Elocation
2001 The Fallout
Elocation tabs
01Who Followed Who? tabbass tab
02(Taking My) Life Away tabbass tab
03Movin' On tabbass tab
04Throw It All Away tabbass tab
05Cruel tabbass tab
06Made to Lie tabbass tab
08Without You tabbass tab
10Enough tabbass tab
11All She Wrote tabbass tab
13Let You Down (Acoustic) tabbass tab

 

1