Search tabs:
Browse artists: 0-9 | A | B | C | D | E | F | G | H | I | J | K | L | M | N | O | P | Q | R | S | T | U | V | W | X | Y | Z
/ Die Toten Hosen / Crash Landing (2001) / Pushed Again guitar tab

Em         Am        G7M       Bm7
E |--------------------------------------------|
H |--------------------------------------------|
G |-------0---------2---------0---------2------|
D |-----2---2-----2---2-----4---4-----0---0----|
A |-------------0-------------------2----------|
E |---0-------------------3--------------------|

     Em         Am        G7M       F#  G7M
E |--------------------------------------------|
H |--------------------------------------------|
G |-------0---------2---------0----------------|
D |-----2---2-----2---2-----4---4-----4---4----|
A |-------------0------------------------------|
E |---0-------------------3---------2---3------|


[1.Strophe]

(=Intro)

Whispering voices in my head
Sounds like they're calling my name
A heavy hand is shaking my bed
I'm weaking up and I feel the strain.

     Dadd9           C
E |-----------------------------|
H |-----------------------------|
G |------0-------0-------0------|
D |----4---4---4---4---4---4----| 2x
A |--5-------5-------3-------3--|
E |-----------------------------|

I'm feeling pushed again...


[2.Strophe]

Why should I go where everyone goes?
Why should I do what everyone does?
I don't like it when you get too close
I don't want to be under your thumb

I'm feeling pushed again...


[Refrain]

     Em              C       G               D
E |--------------------------------------------------|
H |--------------------------------------------------|
G |--9---9---x-x-x-x-5--5--------------------7--7----|
D |--9---9---x-x-x-x-5--5----5---5---x-x-x-x-7--7----|
A |--7---7---x-x-x-x-3--3----5---5---x-x-x-x-5--5----|
E |--------------------------3---3---x-x-x-x---------|

     Em              C       G       D
E |-----------------------------------------|
H |-----------------------------------------|
G |--9---9---x-x-x-x-5--5------------7------|
D |--9---9---x-x-x-x-5--5----5---5---7------|
A |--7---7---x-x-x-x-3--3----5---5---5------|
E |--------------------------3---3----------|

Why can't you just leave me alone?
Solitude is a faithful friend
Turn the lights off - I'm not home
Can't you see I don't need your help


[Zwischenspiel]

        3x              1x
E |------------|------------------|
H |------17-\--|------------------|
G |------------|------------------|
D |--14--------|--16b(17)r(16)----|
A |------------|--------------17--|
E |------------|------------------|

        3x                 1x
E |------------|----------------------|
H |------17-\--|----------------------|
G |------------|----------------------|
D |--14--------|--16b(17)r(16)---14---|
A |------------|--------------17------|
E |------------|----------------------|



[3.Strophe]

You're going too fast when I want to go slow
you make me run when I want to walk
You're sending me down a rocky road
I get confused when you start to talk

I'm feeling pushed again...


[Refrain]


Why can't you just leave me alone
You're dragging me right to the edge
I've got to go when you jerk my rope
I don't know where the good times went


[Bridge]

(Powerchords, Achtel anschlagen)

         C            D          Em
And I'm sick f this pain in my head
        C               D                Hm
And I' scared of being pushed - pushed again!


[Solo]

Begleitgitarre = Intro

Sologitarre:

        8x
E |--------------|----------------------------|
H |--------------|----------------------------|
G |--------------|----------------------------|
D |--9b(10)r(9)--|--9---------7---------------|
A |--------------|------10---------9----7-----|
E |--------------|----------------------------|


[3.Strophe]

    (muted)
E |--------------------------------|
H |--------------------------------|
G |---------2-2------------4-4-----|
D |--2-2----2-2-------5-5--4-4-----|
A |--2-2----0-0-------5-5--2-2-----|
E |--0-0--------------3-3----------|

                              (open)
E |--------------------------------|
H |--------------------------------|
G |---------2-2--------------------|
D |--2-2----2-2-------5-5--4-4-----|
A |--2-2----0-0-------5-5--4-4-----|
E |--0-0--------------3-3--2-2-3-2-|

    (muted)
E |--------------------------------|
H |--------------------------------|
G |---------2-2------------4-4-----|
D |--2-2----2-2-------5-5--4-4-----|
A |--2-2----0-0-------5-5--2-2-----|
E |--0-0--------------3-3----------|

   (open)
E |-----------------------------------|
H |-----------------------------------|
G |---------2-2-----------------------|
D |--2-2----2-2-------5-5-5-5-5-5-5-5-|
A |--2-2----0-0-------5-5-5-5-5-5-5-5-|
E |--0-0--------------3-3-3-3-3-3-3-3-|

It's getting more then I can take
It's like a band tightening around my head
If you keep pushing something's going to break
It's making me think I'd be better of dead


[Refrain]

Why can't you just leave me alone?
Solitude is a faithful friend
I'll sort my life out on my own
I just want this preasure to end


[Bridge]

And I'm sick of this pain in my head
And I' scared of being pushed - pushed again!


   ending:
E |---------------|
H |---------------|
G |---------------|
D |----5---4-2----|
A |----5---4-2----|
E |--3---2---0----|



==================================== version 2 ====================================

|-----------------|-----------------|-----------------|-----------------||
|-----------------|-----------------|-----------------|-----------------:|
|-----0-------2---|-----0-------2---|-----0-------2---|-----0-----------||
|---2---2---2---2-|---4---4---0---0-|---2---2---2---2-|---4---4---4---4-||
|---------0-------|---------2-------|---------0-------|-----------------:|
|-0---------------|-3---------------|-0---------------|-3-------2---3---||

|-----------------|-----------------||-----------------|-----------------|
:-----------------|-----------------::-----------------|-----------------|
|-----0-------0---|-----0-------0---||-----0-------2---|-----0-------2---|
|---4---4---4---4-|---4---4---4---4-||---2---2---2---2-|---4---4---0---0-|
:-3-------3-------|-5-------5-------::---------0-------|---------2-------|
|-----------------|-----------------||-0---------------|-3---------------|

-----------------|-----------------||-----------------||-----------------|
-----------------|-----------------:|-----------------|:-----------------|
-----0-------2---|-----0-----------||-----0-------0---||-----0-------0---|
---2---2---2---2-|---4---4---4---4-||---4---4---4---4-||---4---4---4---4-|
---------0-------|-----------------:|---------5-------|:-3-------3-------|
-0---------------|-3-------2---3---||-3---------------||-----------------|

-----------------||---------|---------||---12---12-|---12---------|
-----------------::---------|---------::-----------|------7-8-7---|
-----0-------0---||---------|---------||-9----9----|-9----------7-|
---4---4---4---4-||-----5-5-|-----7-7-||-----------|--------------|
-5-------5-------::-2-2-3-3-|-5-5-5-5-::-----------|--------------|
-----------------||-0-0-----|-3-3-----||-----------|--------------|

---12---12-|---12-------||-----------------|-----------------|-----------------|
-----------|------7-8-7-:|-----------------|-----------------|-----------------|
-9----9----|-9----------||-----------------|-----------------|-----------------|
-----------|------------||-5-5-5-5-5-5-5-5-|-7-7-7-7-7-7-7-7-|-9-9-9-9-9-9-9-9-|
-----------|------------:|-3-3-3-3-3-3-3-3-|-5-5-5-5-5-5-5-5-|-7-7-7-7-7-7-7-7-|
-----------|------------||-----------------|-----------------|-----------------|

------------|-----------------|-----------------|-----------------|
------------|-----------------|-----------------|-----------------|
------------|-----------------|-----------------|-----------------|
-----%------|-5-5-5-5-5-5-5-5-|-7-7-7-7-7-7-7-7-|-1-1-4-4-2-2-1-1-|
------------|-3-3-3-3-3-3-3-3-|-5-5-5-5-5-5-5-5-|-2-2-2-2-2-2-2-2-|
------------|-----------------|-----------------|-----------------|

-------------------|----------|--------|---------|---|---|-----|---|---16-|
-------------------|----------|--------|---------|---|---|-----|---|------|
-----0--------4(5)-|-4-4(5)-4-|-4-4(5)-|-4-4-5-4-|-4-|-4-|-2---|---|------|
---4---4----4------|----------|--------|---------|---|---|---4-|---|------|
-------------------|----------|--------|---------|---|---|-----|-2-|-2----|
-3-------2---------|----------|--------|---------|---|---|-----|---|------|

-------------|---------|---------|-------------|
-------------|---------|---------|-------------|
-------------|---------|---------|-------------|
-------------|---------|---------|-------------|
-------0-0---|-----2-2-|-----0-0-|-------------|
-0-0---------|-3-3-----|-0-0-----|-3-3-2-2-3-2-|

---------|---------|---------|--------------|---------|
---------|---------|---------|-8-8-8-10-8-7-|---------|
---------|---------|---------|-9-9----------|---------|
---------|---------|-----2-2-|--------------|-----5-5-|
-----0-0-|-----2-2-|-2-2-0-0-|--------------|-2-2-3-3-|
-0-0-----|-3-3-----|-0-0-----|--------------|-0-0-----|

---------||-----------------|-----------------|-------------------------|
---------::-----------------|-----------------|-------------------------|
---------||-----------------|-----------------|-12-12-12-12-12-12-11-11-|
-----7-7-||-5-5-5-5-5-5-5-5-|-7-7-7-7-7-7-7-7-|-------------------------|
-5-5-5-5-::-3-3-3-3-3-3-3-3-|-5-5-5-5-5-5-5-5-|-10-10-10-10-10-10--9--9-|
-3-3-----||-----------------|-----------------|-------------------------|

-----------------|-----------------|-----------------|
-----------------|-----------------|-----------------|
-9-9-9-9-9-7-5-4-|-----------------|-----------------|
-----------------|-5-5-5-5-5-5-5-5-|-7-7-7-7-7-7-7-7-|
-7-7-7-7-7-5-3-2-|-3-3-3-3-3-3-3-3-|-5-5-5-5-5-5-5-5-|
-----------------|-----------------|-----------------|
1.                                  2.
-7-7-7-7-7-7-7-7-|-7-7-7-7-7-7-7-7-||-----------------|-----------------|---|
-7-7-7-7-7-7-7-7-|-7-7-7-7-7-7-7-7-:|-----------------|-----------------|-0-|
-----------------|-----------------||-----------------|-----0-------0---|-0-|
-----------------|-----------------||-4-4-4-4-4-4-4-4-|---4---4---4---4-|-2-|
-----------------|-----------------:|-2-2-2-2-2-2-2-2-|-----------------|-2-|
-----------------|-----------------||-----------------|-3-------2-------|-0-|


Die Toten Hosen albums
2004 Zurück zum Glück
2001 Unsterblich
2001 Crash Landing
1996 Opium Furs Volk
1996 Im Auftrag Des Herrn
1995 Love, Peace & Money
1994 Bis Zim Bitteren
1992 Learning English: Lesson I
Crash Landing tabs
05Pushed Again tabbass tab
07Bonnie and Clyde tabbass tab
13Viva la Revolution tabbass tab

 

1