Search tabs:
Browse artists: 0-9 | A | B | C | D | E | F | G | H | I | J | K | L | M | N | O | P | Q | R | S | T | U | V | W | X | Y | Z
/ / / guitar tab

Die Toten Hosen - All Die Ganzen Jahre

[Intro]
E |--------------------------|
H |--------------------------|
G |-----------0--------------|
D |-----4----------4-------4-| 4x
A |--2-----2------------2----|
E |--------------------------|

E |--------------------------|
H |--------------------------|
G |-----------4--------------|
D |-----2----------2-------2-| 4x
A |--0-----2------------0----|
E |--------------------------|

[1. Strophe]
Du hast mich noch nicht erkannt obwohl ich vor dir steh'
Ich möchte mit dir reden, doch irgendwie kann ich's nicht
Ich hab dich lang nicht mehr gesehn, guck' jetzt in dein Gesicht
Ich suche einen alten Freund doch ich entdecke nichts

[Refrain]
    Em                         G
Versuch dich zu erinnern wir hab'n so viel erlebt
    C               G               D
Es ist als wäre das alles nie gescheh'n
 Em                         Am
Nichts ist mehr geblieben, alles ausgelöscht
 C               D
All die ganzen Jahre

Ob's dir wohl auch so geht daß du mich nicht mehr verstehst
Es ist als wäre das alles nie gescheh'n
Nichts ist mehr geblieben, alles ausgelöscht
All die ganzen Jahre

[2.Strophe]
Wo ist der Funke, der uns verbunden hat
Es gibt nichts das uns trennt habe ich immer gedacht
Haben wir uns wirklich jemals die Freundschaft geschworn
Wenn es einen Grund gab wir haben ihn verlorn

[Refrain]
Versuch dich zu erinnern, wir hab'n so viel erlebt
Es ist als wäre das alles nie gescheh'n
Nichts ist mehr geblieben, alles so weit weg
All die ganzen Jahre
Ob's dir wohl auch so geht daß du mich nicht mehr verstehst
Es ist als wäre das alles nie gescheh'n
Nichts ist mehr geblieben, alles ausgelöscht
All die ganzen Jahre

[SOLO]
   F#m           A          D               F#m         A          D          Hm

E----5-----------5----------5----------------5----------5----------5------------
H-------7-----------7----------7----------------7----------7---------7----------
G----------6-----------6---------6----------------6----------6---------6--5--4--
D-------------------------------------------------------------------------------
A-------------------------------------------------------------------------------
E-------------------------------------------------------------------------------

[3.Strophe]
Deine Augen bleiben tot und ich weis jetzt Bescheid
Ohne ein Wort zu sagen gehe ich an dir vorbei

[Refrain]
Versuch dich zu erinnern, wir hab'n so viel erlebt
Es ist als wäre das alles nie gescheh'n
Nichts ist mehr geblieben, alles so weit weg
All die ganzen Jahre
     F#m                           A
Ob's dir wohl auch so geht daß du mich nicht mehr verstehst
   D                  A            E
Es ist als wäre das alles nie gescheh'n
 F#m                         Hm
Nichts ist mehr geblieben, alles ausgelöscht
 D               E
All die ganzen Jahre

[Outro]
E |--------------------------|
H |--------------------------|
G |-----------0--------------|
D |-----4----------4-------4-| 6x
A |--2-----2------------2----|
E |--------------------------|


albums
tabs

 

1