Search tabs:
Browse artists: 0-9 | A | B | C | D | E | F | G | H | I | J | K | L | M | N | O | P | Q | R | S | T | U | V | W | X | Y | Z
/ / / guitar tab

Intro/Riff:

   Am    G       C       D      Am    G         C     D
e|------------------------------------------------------
b|------------------------------------------------------
G|-2---4-2-0---0-0-----0-2------2---4-2-0-----0-0---0---
D|-----------2-------2--------------------2-------2---4-
A|------------------------------------------------------
E|------------------------------------------------------

1.              Am           G
   Wir sind uns vorher nie begegnet
                C                  D
   doch ich hab dich schon lang vermiߴ
                 Am              G
   Auch wenn ich dich zum ersten Mal hier treff
               C               D
   ich wusste immer wie du aussiehst

Pre-Chorus:

Guitar 2:

       Am               F
------------------------------------------
------------------------------------------
------------------------------------------
-------7---7----7---7---3---3--3---3------
-------7---7----7---7---3---3--3---3------
-------5---5----5---5---1---1--1---1------
   Mit dir will ich die Pferde stehlen
       D           C   C/B
------------------------------------------
------------------------------------------
-------7---7--7-7----5-5------------------
-------7---7--7-7---5--5------------------
-------5---5--5-5--3---2------------------
------------------------------------------
   die uns im Wege sind
       Am                F
------------------------------------------
------------------------------------------
------------------------------------------
-------7---7----7---7----3---3--3---3------
-------7---7----7---7----3---3--3---3------
-------5---5----5---5----1---1--1---1------
   Ich geh mit dir durch dick und d��
              D           E
------------------------------------------
------------------------------------------
--------------7--7--7-7---9---------------
--------------7--7--7-7---9---------------
--------------5--5--5-5---7---------------
------------------------------------------
   bis an das Ende dieser Welt

Chorus:
              C             Am
   Leg deinen Kopf an meine Schulter
          F			  #fill1
   es ist sch��ihn da zu sp��
           C       F
   Und wir spielen Bonnie
       G
   und Clyde
            C              Am
   Komm wir klauen uns ein Auto
       F
   Ich fahr dich damit rum
           C       F
   und wir spielen Bonnie
       G
   und Clyde

fill1:
g|--2-2-2-2p0--------
d|------------2------
a|--------------3----

2. Was wir zum Leben brauchen
   werden wir uns schon irgendwie holen
   Wir rauben ein paar Banken aus
   oder einen Geldtransport

Pre-Chorus:
   Wir schieߥn 2, 3, 4, 5 K��um
   wenn es nicht mehr anders geht
   Jeder weiߠgenau, was er da tut
   wenn er uns aufhalten will

Chorus:
   Leg deinen Kopf an meine Schulter
   es ist sch��ihn da zu sp��
   Und wir spielen Bonnie und Clyde

   Auch wenn uns die ganze Welt verfolgt
   Wir k��rn uns nicht drum
   denn wir sind Bonnie und Clyde

Solo:

e------------------------------------------------------------
b------------------------------------------------------------
g----------0-------------4~~-------------0--------------2~~--
d--2----4-----4--2---------------2----4-----4--2-----0-------
a------------------2--3---------------------------2----------
e------------------------------------------------------------

e------------------------------------------------------------
b------------------------------6-6-6-6-6-6-6-8-8-8-8-8-8-8-8-
g--4-----4---4----4----4---4---5-5-5-5-5-5-5-7-7-7-7-7-7-7-7-
d-----5----5---5-----5---5---5-------------------------------
a------------------------------------------------------------
e------------------------------------------------------------
                  				 Wenn uns der
                  |*harmonics|
e----------------------------
b----------------------------
g--7b9~~~~~~~~~~~~r7*****---- (there's an effect, but i dont kno what...)
d----------------------------
a----------------------------
e----------------------------
   Boden unter...


3. Wenn uns der Boden unter den F�� brennt
   machen wir uns aus dem Staub
   In den Bergen h䮧en wir alle ab
   die etwas von uns wollen

Pre-Chorus:
   Lebendig kriegen sie uns nie
   egal wieviel es sind
   "Tod oder Freiheit"
   soll auf unserm Grabstein stehen.

Chorus:
   Leg deinen Kopf an meine Schulter
   es ist sch��ihn da zu sp��
   Und wir spielen Bonnie und Clyde

   Komm wir Bomben uns durchs Leben
   und ��en jede T��   denn wir sind Bonnie und Clyde

Chorus:
e------------------------------------------
b------------------------------------------
g--------------5-5-5-5--5------------------
d--------------5-5-5-5--5--7-7-7-7--7------
a--------------3-3-3-3--3--7-7-7-7--7------
e--------------------------5-5-5-5--5------
               pm.....     pm.....
   Leg deinen Kopf an meine Schulter

e------------------------------------------
b------------------------------------------
g------------------------------------------
d---------3-3-3-3--3---3-3-3-3--3----------
a---------3-3-3-3--3---3-3-3-3--3----------
e---------1-1-1-1--1---1-1-1-1--1----------
          pm.....      pm.....
   es ist sch��ihn da zu sp��

e------------------------------------------
b------------------------------------------
g--------------5-5-5-5--5------------------
d--------------5-5-5-5--5--3-3-3-3--3------
a--------------3-3-3-3--3--3-3-3-3--3------
e--------------------------1-1-1-1--1------
               pm.....     pm.....
   Und wir spielen         Bonnie und

e------------------------------------------
b------------------------------------------
g------------------------------------------
d--5-5-5-5--5---5-5-5-5--5-----------------
a--5-5-5-5--5---5-5-5-5--5-----------------
e--3-3-3-3--3---3-3-3-3--3-----------------
   pm.....      pm.....
   Clyde

e------------------------------------------
b------------------------------------------
g---------5-5-5-5--5------------------
d---------5-5-5-5--5-----7-7-7-7--7------
a---------3-3-3-3--3-----7-7-7-7--7------
e------------------------5-5-5-5--5------
          pm.....     pm.....
   Unsere Liebe soll ein Sprengsatz sein

e------------------------------------------
b------------------------------------------
g------------------------------------------
d---------3-3-3-3--3---3-3-3-3--3----------
a---------3-3-3-3--3---3-3-3-3--3----------
e---------1-1-1-1--1---1-1-1-1--1----------
          pm.....      pm.....
   der st䮤ig explodiert

e------------------------------------------
b------------------------------------------
g----------5~------------------------------
d----------5~------3~------5~--------------
a----------3~------3~------5~--------------
e------------------1~------3~--------------
   Du bist Bonnie, ich bin Clyde


albums
tabs

 

1