Search tabs:
Browse artists: 0-9 | A | B | C | D | E | F | G | H | I | J | K | L | M | N | O | P | Q | R | S | T | U | V | W | X | Y | Z
/ Die Toten Hosen / Im Auftrag Des Herrn (1996) / Böser Wolf guitar tab

Song: B? Wolf
Artist: Die toten Hosen
Album: Opium f?olk


Used Chords:

A     xxx220
Amaj7 xxx120
D     xxx232
G6    xxx000
E     xxx100  or  xxx454

Intro (Keyboard arr. for guitar):

------0---2---0-------0---2---0-------2-------0-----0-------4----
----2---2---2---2---2---2---2---2---3---3---2-----0---0---5---5--
--2---------------1---------------2-------2-----0-------4--------
-----------------------------------------------------------------
-----------------------------------------------------------------
-----------------------------------------------------------------

Riff:

  A       Amaj7  D     A     G6   E
---------------------4-5--------------
(3h)5----b7r5------7-----5------------
---------------------------7-6-4------
--------------------------------------
--------------------------------------
--------------------------------------
  A      Amaj7   D      A     G6  E
----------------------4-5-------------
(3h)5---b7r5-------7------5-----5-----
----------------------------7-6-------
--------------------------------------
--------------------------------------
--------------------------------------

Verses:

1. 		 A
   Sie malt gern Bilder
	    Amaj7
   von sich selbst
       D	    A
   und riesengroߥn M䮮ern
      G6           E
   in einer Zwergenwelt
		A
   Sie weiߠGeschichten
		 Amaj7
   die sie nie erz䨬t
	D	A
   die meisten davon hat sie
   G6     E (let ring)
   selber erlebt


Chorus (Theres no guitar in really, but it works like this, i think...) :

   Wie die vom b? Wolf
	     A-2-2-2------
	     E------------

   der hin und wieder kommt
	     A------------
	     E-2-2-2------

   und jedesmal danach von ihr verlangt
     D----------------------------2----------4-
     A--2----------4---------------------------

   dass sie keinem
	   A-2-2-2-----
	   E-----------

   ein Sterbensw?hen sagt
	      A------------
	      E-2-2-2------

   weil er sie daf?st f?rlich bestraft
	 D-----------------------------------2-----------4-
	 A--2---------------4------------------------------

  #Intro-Riff

2. Wenn ihre Mami
   sie in den Arm nimmt
   w?ie am liebsten weinen
   und alles gestehen
   doch sie hat Angst
   und sie sch䭴 sich
   sie weiߠkeinen Rat
   und versucht wegzusehen

Chorus:

   Wenn der b?Wolf...

Solo:

----------------7--2/5-------------------------------
---7----7\2---7---------7--7/5--5/-------------------
------------------------7--7/6--6/-\4----4---4-------
-------------------------------------------7---6-----
--------------------------------------------------7--
-----------------------------------------------------

------7--2/5----10-9-7-9---5------------------------------------
---7----------7------------5-10-10\9--9\------------------------
------------------------------9--9\9--9\-/4---4--4--4-----------
------------------------------------------------------7-6-4-----
------------------------------------------------------------(7)-
----------------------------------------------------------------

3. Sie ist so scheu
   wie ein Reh
   man nimmt sie kaum wahr denn
   sie redet nicht viel
   sie bleibt am liebsten
   f?h allein
   betet zu Gott und
   w? sich dabei

Chorus:

   Dass der b?Wolf...

Outro:

------0---2---0-------0---2---0-------2-------0-----0-------4----
----2---2---2---2---2---2---2---2---3---3---2-----0---0---5---5--
--2---------------1---------------2-------2-----0-------4--------
-----------------------------------------------------------------
-----------------------------------------------------------------
-----------------------------------------------------------------


Die Toten Hosen albums
2004 Zurück zum Glück
2001 Unsterblich
2001 Crash Landing
1996 Opium Furs Volk
1996 Im Auftrag Des Herrn
1995 Love, Peace & Money
1994 Bis Zim Bitteren
1992 Learning English: Lesson I
Im Auftrag Des Herrn tabs
02Niemals Einer Meinung tabbass tab
03Alles Aus Liebe tabbass tab
05Nichts Bleibt Für Die Ewigkeit tabbass tab
07Bonnie & Clyde tabbass tab
08Gewissen tabbass tab
10Paradies tabbass tab
12Hier Kommt Alex tabbass tab
15Zehn Kleine Jägermeister tabbass tab
17Böser Wolf tabbass tab
18All Die Ganzen Jahre tabbass tab
20You'll Never Walk Alone tabbass tab

 

1