Search tabs:
Browse artists: 0-9 | A | B | C | D | E | F | G | H | I | J | K | L | M | N | O | P | Q | R | S | T | U | V | W | X | Y | Z
/ Die Toten Hosen / Zurück zum Glück (2004) / Ich Bin Die Sehnsucht in Dir guitar tab

Die Toten Hosen - Ich bin die Sehnsucht in dir


First time I tab so if you find any mistakes please mail me: bernhard.posselt@gmx.at
Listen how many times each part is played
Have fun!

You must
Tune 1 Step Down


Intro

|-------------------------------------|
|-------0-----------------------------|
|--------------2--------2-------------|
|-----2------2---2-----2---2------6---|
|---2------3--------0--------3/7----7-|
|-0-----------------------------------|

|-----------------------------------0-|
|-------0-------------------------4---|
|--------------2--------2-------4-----|
|-----2------2---2----2-------5-------|
|---2------3--------0------/6---------|
|-0-----------------------------------|

Verse

|----------------------------|
|-----8-----7-----7-----5----|
|----------------------------|
|---9-----7-----7-----7------|
|-7-----6-----5-----4--------|
|----------------------------|

Intro


Ref: Guitar 1 plays Rythm part	
     Guitar 2 the melody

Guitar 1

|-3--3-3----5--5-5----5--5-5--5--5-5-|
|-3--3-3----6--6-6----5--5-5--5--5-5-|
|-4--4-4----7--7-7----5--5-5--5--5-5-|
|-5--5-5----7--7-7----7--7-7--7--7-7-|
|-5--5-5----5--5-5----7--7-7--7--7-7-|
|-3--3-3--------------5--5-5--5--5-5-|


|-3--3-3----5--5-5----5--5-5--5---8---8--|
|-3--3-3----6--6-6----5--5-5--5---8---8--|
|-4--4-4----7--7-7----5--5-5--5---9---9--|
|-5--5-5----7--7-7----7--7-7--7---10--10-|
|-5--5-5----5--5-5----7--7-7--7---10--10-|
|-3--3-3--------------5--5-5--5---8---8--|

Guitar 2

|-----------------------|
|---7h9-b10--r9----7----|
|--------------------10-|
|-----------------------|
|-----------------------|
|-----------------------|

|--------------------|
|---7h9-b10--r9-9----|
|------------------7-|
|--------------------|
|--------------------|
|--------------------|

Intro

Verse

Prechorus

|------------------------------------------------|
|------------------------------------------------|
|-9-9-9-9--9-9-9-9--12-12--5-5-5-5--5-5-5-5--7-7-|
|-9-9-9-9--9-9-9-9--12-12--5-5-5-5--5-5-5-5--7-7-|
|-7-7-7-7--7-7-7-7--10-10--3-3-3-3--3-3-3-3--5-5-|
|------------------------------------------------|


Chorus


Bridge/Solo: Guitar 1 plays accompaniment
    	     Guitar 2 the solo


Guitar 1

|------------------------------------|
|-----13-----12--------12-----10-----|
|------------------------------------|
|---14-----12--------12-----12-------|
|-12-----11-----11-10------9-----9---|
|------------------------------------|

|------------------------------------|
|-----13-----12--------8-----7-------|
|--------------------9------8--------|
|---14-----12------10---10-9----9----|
|-12-----11--------------------------|
|------------------------------------|


Guitar 2
|-----------------------------------------------|
|-----------------------------------------------|
|-----------------------------------------9---8-|
|---------7-9--9b10r9--7-----------7-9-10---9---|
|---7---7---------------8----7---7--------------|
|-5------------------------5--------------------|


Ref

Prechorus

Intro

Verse


Legend

 b = bend
 r = bend release
 /-\  = slide into or out of (from/to "nowhere")


Die Toten Hosen albums
2004 Zurück zum Glück
2001 Unsterblich
2001 Crash Landing
1996 Opium Furs Volk
1996 Im Auftrag Des Herrn
1995 Love, Peace & Money
1994 Bis Zim Bitteren
1992 Learning English: Lesson I
Zurück zum Glück tabs
03Ich Bin Die Sehnsucht in Dir tabbass tab
11How Do You Feel? tabbass tab
13Walkampf tabbass tab

 

1