Search tabs:
Browse artists: 0-9 | A | B | C | D | E | F | G | H | I | J | K | L | M | N | O | P | Q | R | S | T | U | V | W | X | Y | Z
/ Drowning Pool / Desensitized (2004) / Think guitar tab

Album: Desensitized

Tuning: Drop B

* = Palm Mute
~ = Let Ring

Intro:

-------- --------------------
----0-0~- ---------0-0~------
-------- --------------------
-------- --------------------      --------
-------- --------------------      --------
-2~------ -0-3-2~------------ X3   --0-3-2-


Chorus:
-----------------------------------------------------------------
-----------------------------------------------------------------
-----------------------------------------------------------------
-2--2-3-2-2--2--3-2-2---2--2-3-2-2--0~--3~-----------------------
-2--2-3-2-2--2--3-2-2---2--2-3-2-2--0~--3~-----------------------
-2--2-3-2-2--2--3-2-2---2--2-3-2-2--0~--3~----------------------- X2
      *         *            *

Verse:
------------------------------------------------------------------
---0---0---0---0--------------------------------------------------
-----4---4---4---4------------------------------------------------
------------------------------------------------------------------
------------------------------------------------------------------
------------------------------------------------------------------ X8

-------------------------------------------------- [----------------]
-------------------------------------------------- [----------------]
-------------------------------------------------- [----------------]
-------------------------------------------------- [-3-3--3-3--3-3--]
-222-333-222-333-22-33-222-333-222-333-55-33------ [-3-3--3-3--3-3--]
-222-333-222-333-22-33-222-333-222-333-55-33------ [-3-3--3-3--3-3--]
 *** *** *** *** ** ** *** *** *** *** ** **


Chorus


-------------------------------------------------------------------
-------------------------------------------------------------------
-------------------------------------------------------------------
-2--3~---2--3~---2--3~----2--3~---2--3~---5--3~---------------------
-2--3~---2--3~---2--3~----2--3~---2--3~---5--3~---------------------
-2--3~---2--3~---2--3~----2--3~---2--3~---5--3~--------------------- X4


-------------------------------------------------- [----------------]
-------------------------------------------------- [----------------]
-------------------------------------------------- [----------------]
-------------------------------------------------- [-3-3--3-3--3-3--]
-222-333-222-333-22-33--222-333-222-333-55-33----- [-3-3--3-3--3-3--]
-222-333-222-333-22-33--222-333-222-333-55-33------[-3-3--3-3--3-3--]
 *** *** *** *** ** **  *** *** *** *** ** **


Chorus X2



-------------
-------------
-------------
-0~-----2~---
-0~-----2~---
-0~-----2~--- X3


-------------------------------------------------------------------------------
-------------------------------------------------------------------------------
-------------------------------------------------------------------------------
-222--333--222--333--22--33---222--333--222--333--55--33-----------------------
-222--333--222--333--22--33---222--333--222--333--55--33-----------------------
-222--333--222--333--22--33---222--333--222--333--55--33-----------------------




------------------------------------------------------------------------------------------
------------------------------------------------------------------------------------------
------------------------------------------------------------------------------------------
-222--3--222--3--33-22---2~--3~--2~--3~--2~--3~----33-33-33-33-33----5--3--2--------------
-222--3--222--3--33-22---2~--3~--2~--3~--2~--3~----33-33-33-33-33----5--3--2--------------
-222--3--222--3--33-22---2~--3~--2~--3~--2~--3~----33-33-33-33-33----5--3--2--------------
 ***     ***


----------   ------------------    --------------------
----0-0~--   ----- --0-0~------    --------------------
----------   ------------------    --------------------
----------   ------------------    --------------------
----------   ------------------    ------2--0-3-2------
-2~-------X1 -0-3-2~------------X4  -0-3-2--0-3-2------
                                         *  * * *

Chorus


Great opening song to Drowning Pool's New Cd Desensitized. Enjoy.


Drowning Pool albums
2004 Desensitized
2001 Sinner
Desensitized tabs
01Think tabbass tab
02Step Up tabbass tab
04This Life tabbass tab
05Nothingness tabbass tab
07Love and War tabbass tab
10Killin' Me tabbass tab
11Hate tabbass tab

 

1