Search tabs:
Browse artists: 0-9 | A | B | C | D | E | F | G | H | I | J | K | L | M | N | O | P | Q | R | S | T | U | V | W | X | Y | Z
/ Filter / Title Of Record (1999) / Take A Picture guitar tab

FILTER
Take a Picture

INTRO/VERSE: (electric in Drop D tuning):

e-----------------------------------------------------
b-----------------------------------------------------
g-----------------------------------------------------
d-9h11-11-11-11-9-11--11--11-----9h11-11-12-11-11-----
a-0----0--0--0--0-0---0---0---0--0----0--0--0--0------
D-----------------------------------------------------

e-----------------------------------------------------
b-----------------------------------------------------
g----12--12--11----11-----12--12--11------------------
d----x---x---x-----x------x---x---x-------------------
a----10--10--9-----9------10--10--9-------------------
D--0-0---0---0-----0---0--0---0---0-------------------

Acoustic (drop D tuned):

e--0-0-0--0-----0-0-0--0------3-3-2--3-3-2------------
b--0-0-0--0-----0-0-0--0------3-3-3--3-3-3------------
g--2-2-2--2-----2-2-2--2------2-2-2--2-2-2------------
d--2-2-2--2-----2-2-2--2------0-0-0--0-0-0------------
a--0-0-0--0-----0-0-0--0------------------------------
D-----------------------------------------------------
    Aadd9	      Aadd9        D       D

Chorus:  

e----0-------0-------0-------0--
b----0-------0-------0-------0--
g----9-------14------11------7--
d----9-------14------11------7--
a----7-------12------9-------5--
D----7-------12------9-------5--
  do you....picture..cuz i...remember....

tabbed by zipztabs.com
Enjoy!



 ----------------------------------------------------------------------------------------------

	     SONG: Take A Picture
	     BAND: Filter
	    ALBUM: Title Of Record
   TRANSCRIBED BY: Paul De Jaegher
	     DATE: January 20, 2000

 ----------------------------------------------------------------------------------------------

	TUNING: drop d (D,A,D,G,B,E)


     For this song I have just written out the chord progressions since the timing
     and strumming pattern can be easily figured out by listening to the song.  If 
     you have any questions or problems you can email me at tablature@canada.com.


     INTRO/VERSE:

    E|--0--|--0--|--0--|--0--|--0--|--3--|--2--|
    B|--0--|--2--|--0--|--3--|--2--|--3--|--3--|
    G|--2--|--2--|--2--|--2--|--2--|--2--|--2--|
    D|--2--|--2--|--2--|--2--|--2--|--0--|--0--|
    A|--0--|--0--|--0--|--0--|--0--|-----|-----|
    D|-----|-----|-----|-----|-----|-----|-----|


     CHORUS:

    E|--0--|---0--|---0--|---0--|--0--|
    B|--0--|---0--|---0--|---0--|--0--|
    G|--9--|--14--|--11--|--14--|--7--|
    D|--9--|--14--|--11--|--14--|--7--|
    A|--7--|--12--|---9--|--12--|--5--|
    D|--7--|--12--|---9--|--12--|--5--|




Filter albums
2002 The Amalgamut
1999 Title Of Record
1995 Short Bus
Title Of Record tabs
01Sand tabbass tab
02Welcome to the Fold tabbass tab
03Captain Bligh tabbass tab
04It's Gonna Kill Me tabbass tab
05The Best Things tabbass tab
06Take A Picture tabbass tab
07Skinny tabbass tab
08I Will Lead You tabbass tab
09Cancer tabbass tab
10I'm Not the Only One tabbass tab
11Miss Blue tabbass tab

 

1