Search tabs:
Browse artists: 0-9 | A | B | C | D | E | F | G | H | I | J | K | L | M | N | O | P | Q | R | S | T | U | V | W | X | Y | Z
/ Five For Fighting / The Battle for Everything (2004) / If God Made You guitar tab

Alright well this song is really easy, but i know for sure that this is how it goes
i saw him perfore on jay leno so here it goes.
You gotta figure out the rythem on this though.THese are just the basic chords.

INTRO:
|--3----------3-----------------------------------------------------------|
|--3----------3-----------------------------------------------------------|
|--0----------0-----------------------------------------------------------|
|--0----------2--------------Then again-----------------------------------|
|--2----------3-----------------------------------------------------------|
|--3----------------------------------------------------------------------|

Hey kid..        Your time..      I need you more..    Any women anyway
|---3-------------3------------------3----------------------3------|
|---3-------------3------------------3----------------------3------|
|---0-------------0------------------0----------------------0------|
|---2-------------0------------------2----------------------0------|
|---3-------------2------------------3----------------------2------|
|-----------------3-----------------------------------------3------|


He does this a couple of times and thenfor the prechorus:

|---3-------------3------------------1-----------------------------|
|---3-------------3------------------1-----------------------------|
|---0-------------0------------------2-----------------------------|
|---2-------------0------------------3-----------------------------|
|---3-------------2------------------------------------------------|
|-----------------3------------------------------------------------|

Then the chorus:

|---3-------------3------------------1--------------------0---------|
|---3-------------3------------------1--------------------1---------|
|---0-------------0------------------2--------------------0---------|
|---2-------------0------------------3--------------------2---------|
|---3-------------2---------------------------------------3---------|
|-----------------3-------------------------------------------------|
Thats it.
now with the chorus somtimes he plays that last C cord and somtimes he doesnt so play this one by ear.


Five For Fighting albums
2004 The Battle for Everything
2000 America Town
The Battle for Everything tabs
01NYC Weather Report tabbass tab
03If God Made You tabbass tab
04100 Years tabbass tab

 

1