Search tabs:
Browse artists: 0-9 | A | B | C | D | E | F | G | H | I | J | K | L | M | N | O | P | Q | R | S | T | U | V | W | X | Y | Z
/ Godsmack / Awake (2000) / Spiral guitar tab

Song: Spiral
Band: Godsmack
Album: Awake

Tab by Joe Costello (joseph.costello@villanova.edu)

The last song on Awake, this should be a correct tab. 

Tuning (from low to high): C G C F A D
Tune all strings down a whole step, and drop D.

Symbols used:
P.M.... = palm mute
v = vibrato
h = hammer-on
p = pull off

There are only 4 parts to this song, most of it follows the same pattern...

Intro/Verses: Riff 1

D|----------------------------------|-----------------------------|
A|----------------------------------|-----------------------------|
F|----------------------------------|-----------------------------|
C|----------------------------------|-----------------------------|
G|----------------------------------|-----------------------------|
C|---0---15---0---12--13--0-0--10---|---0---15---0---12--13--12---|
     P.M............................    ..........................

Pre-Chorus: Riff 2 (with heavy distortion, strumming pattern not shown)

D|-----------------------------------------|
A|-----------------------------------------|
F|-----------------------------------------|
C|---5--5--5--5---5---1---1--1---1--0--1---|
G|---5--5--5--5---5---1---1--1---1--0--1---|
C|---5--5--5--5---5---1---1--1---1--0--1---|
    \"I feel rain pouring down...\"
								                                      (2x)
D|----------------------------------|------------------------------|
A|----------------------------------|------------------------------|
F|----------------------------------|-----------------------------*|
C|---0---15---0---12--13--0-0--10---|---0---15---0---12--13--12-0-*|
G|---0---15---0---12--13--0-0--10---|---0---15---0---12--13--12-0--|
C|---0---15---0---12--13--0-0--10---|---0---15---0---12--13--12-0--|

Chorus: Riff 3 (practically the same as the second part of the pre-chorus)
								(4x)
D|----------------------------------|------------------------------|
A|----------------------------------|------------------------------|
F|----------------------------------|-----------------------------*|
C|---0---15---0---12--13--0-0--10---|---0---15---0---12--13--12---*|
G|---0---15---0---12--13--0-0--10---|---0---15---0---12--13--12----|
C|---0---15---0---12--13--0-0--10---|---0---15---0---12--13--12----|

Solo: 

D|----------------------------------|---------------------------|
A|----------------------------------|---------------------------|
F|---14v-----15-14h15p14p12--12--14-|--17--14h15p14-12--12--14--|
C|----------------------------------|---------------------------|
G|--------------------------------------------------------------|
C|--------------------------------------------------------------|

D|-------------------------------------------------|
A|-------------------------------------------------|
F|---14----12h14p12-------------------------------*|
C|---------------------14---12----12--10v---------*|
G|-------------------------------------------------|
C|-------------------------------------------------|

The solo repeats itself a couple times, then the song goes back to the pre-chorus and
chorus. The solo is also played during the fade out at the end.

The order of the song should be easy to figure out, and that\'s it. E-mail me with any
questions, comments, corrections, or whatever else...

Take it easy,
Joe


Godsmack albums
2004 Other Side
2003 Faceless
2000 Awake
1997 Godsmack
Awake tabs
01Sick of Life tabbass tab
02Awake tabbass tab
03Greed tabbass tab
04Bad Magick tabbass tab
05Goin' Down tabbass tab
06Mistakes tabbass tab
07Trippin' tabbass tab
08Forgive Me tabbass tab
09Vampires tabbass tab
10The Journey tabbass tab
11Spiral tabbass tab

 

1