Search tabs:
Browse artists: 0-9 | A | B | C | D | E | F | G | H | I | J | K | L | M | N | O | P | Q | R | S | T | U | V | W | X | Y | Z
/ Godsmack / Awake (2000) / Trippin' guitar tab

Song: \"Trippin’\"
Artist: Godsmack
Album: Awake
Transcribed By: Bryan Bramlett

Tuning: (C,G,C,F,A,D)

VERSE:
|--------------------------------------------|
|--------------------------------------------|
|-----------14-----------14------------------|
|--12-13-12-----12-13-12-----10-13-12-13-12--|
|--------------------------------------------|
|--------------------------------------------|

FILL 1:
|------------|
|------------|
|------------|
|--33333-11--|
|--33333-11--|
|--33333-11--|

BRIDGE:
|--------------------|
|--------------------|
|--------------------|
|--00-00-00-00-0666--|
|--00-00-00-00-0666--|
|--00-00-00-00-0666--|

CHORUS:
|-----------------------------------------------------------|
|-----------------------------------------------------------|
|-----7------8-----------------------------7------8---------|
|--0--7--1-1-8--3-1--00-00-00-00-0666--0-0-7--1-1-8--3-1-0--|
|--0--5--1-1-6--3-1--00-00-00-00-0666--0-0-5--1-1-6--3-1-0--|
|--0-----1-1----3-1--00-00-00-00-0666--0-0----1-1----3-1-0--|

FILL 2:
|-----------------------|
|-----------------------|
|---------9-7---9-10-7--|
|-------7---------------|
|--0--------------------|
|--0--------------------|

SOLO 1:
|--------------------------------------------17---------------------|
|-----10hold\\-----5---6-----5\\------10----18------6---5---6---5--3--|
|--12-----12\\---7---7---7hold\\---12----12-----------7---7---7-------|
|-------------------------------------------------------------------|
|-------------------------------------------------------------------|
|-------------------------------------------------------------------|


===========================================================================

Godsmack - trippin
Tuning- low to high C-G-C-F-A-D
Intro                                Right before chorus.
|-----------------------------------|-----------|
|-----------------------------------|-----------|
|--------14----------14-------------|-----------|
|12-13-12----12-13-12----10-12-13-12|3-3-3-3\\1-1|
|-----------------------------------|3-3-3-3\\1-1|
|-----------------------------------|3-3-3-3\\1-1|
Repeat however many times until pre-chorus. 

Pre-Chorus
|-----------------------------|------------------------------|
|-----------------------------|------------------------------|
|-----------------------------|------------------------------|
|0-0--0-0--0-0--0-0--0-6-6-6-6|-0-0--0-0--0-0--0-0--0-3-3-3-3|
|0-0--0-0--0-0--0-0--0-6-6-6-6|-0-0--0-0--0-0--0-0--0-3-3-3-3|
|0-0--0-0--0-0--0-0--0-6-6-6-6|-0-0--0-0--0-0--0-0--0-3-3-3-3|
Repeat this again ^ then do this ^.

Chorus
|----0--------------------|
|----3--------------------|
|----2--------------------|
|0-------0--0--1--1-1--1/3|
|0-------0--0--1--1-1--1/3|
|0-------0--0--1--1-1--1/3|
Do again with pre-chorus.

Last part of song before the queit ending.
|----------------------------|
|----------------------------|
|7--7-7--7-7--7-7--7/13-13-13|
|----------------------------|
|5--5-5--5-5--5-5--5/11-11-11|
|----------------------------|
Do again.

That\'s it. I\'m workin on the solo, so be expecting it soon. 
This is a great song just like about every other Godsmack song.


Godsmack albums
2004 Other Side
2003 Faceless
2000 Awake
1997 Godsmack
Awake tabs
01Sick of Life tabbass tab
02Awake tabbass tab
03Greed tabbass tab
04Bad Magick tabbass tab
05Goin' Down tabbass tab
06Mistakes tabbass tab
07Trippin' tabbass tab
08Forgive Me tabbass tab
09Vampires tabbass tab
10The Journey tabbass tab
11Spiral tabbass tab

 

1