Search tabs:
Browse artists: 0-9 | A | B | C | D | E | F | G | H | I | J | K | L | M | N | O | P | Q | R | S | T | U | V | W | X | Y | Z
/ Godsmack / Other Side (2004) / Re-Align guitar tab

I'm positive this is 100% percent correct; it took a long time to get the song.
Tuning: C-G-C-G-B-E (I know it's not the correct drop c tuning, but it's how I would play it)
h=Hammer On


Intro Play x2 (with distortion)
E--------------------------------------------------
B--------------------------------------------------
G--------------------------------------------------
C-0-0-0-0--3-3-3-8-8-8--0-0-0-0--8--3-1-0----------
G-0-0-0-0--3-3-3-8-8-8--0-0-0-0--8--3-1-0----------
C-0-0-0-0--3-3-3-8-8-8--0-0-0-0--8--3-1-0----------

Intro(continued)
E-------------------------------------
B-------------------------------------
G-------------------------------------
C-0-0-0-0--3-3-3-8-8-8--0-0-0-0--8--1-
G-0-0-0-0--3-3-3-8-8-8--0-0-0-0--8--1-
C-0-0-0-0--3-3-3-8-8-8--0-0-0-0--8--1-
                                    ^Let ring

Verse (Distortion)
E----------------------------------------------------
G----------------------------------------------------
B----------------------------------------------------
C-0-0h3--3-8-0-0h3--3-8-0--0h3-8--0-0h3--------------
G-0-0h3--3-8-0-0h3--3-8-0--0h3-8--0-0h3--------------
C-0-0h3--3-8-0-0h3--3-8-0--0h3-8--0-0h3--------------

Chorus(Distortion)
E-----------------------------------------------------------
B-----------------------------------------------------------
G-----------------------------------------------------------
C-0-10--8-10--0--10--8--10--0-------------------------------
G-0-10--8-10--0--10--8--10--0-------------------------------
C-0-10--8-10--0--10--8--10--0-------------------------------

For the second chorus, play the above two times

Bridge
E----------------------------------------------------------------
B----------------------------------------------------------------
G----------------------------------------------------------------
C-33333-2-2-0-0-0---3-3-2-2-0-0-0--3-3-2-2-0000-0-0-------------
G-33333-2-2-0-0-0---3-3-2-2-0-0-0--3-3-2-2-0000-0-0-------------
C-33333-2-2-0-0-0---3-3-2-2-0-0-0--3-3-2-2-0000-0-0-------------
                                           ****

Pre-Solo(with effect)
E-----------------------------------------------------------------
B-----------------------------------------------------------------
G----10-12-10------8-10-8------10-12-10------8-10-8---------------
C-----------------------------------------------------------------
G-----------------------------------------------------------------
C-----------------------------------------------------------------

Well thatís it, Iíll post the solo for this song later, itís my first time doing a tab, so I hope I donít make this tab too confusing, e-mail me at "laughingfreak89@hotmail.com"


Godsmack albums
2004 Other Side
2003 Faceless
2000 Awake
1997 Godsmack
Other Side tabs
01Running Blind tabbass tab
02Re-Align tabbass tab
03Touchť tabbass tab
04Voices tabbass tab
06Spiral tabbass tab
07Asleep tabbass tab

 

1