Search tabs:
Browse artists: 0-9 | A | B | C | D | E | F | G | H | I | J | K | L | M | N | O | P | Q | R | S | T | U | V | W | X | Y | Z
/ / / guitar tab

Song - We Believe
Band - Good charlotte
Tabber - gcrule393

This is a really good song and no-one else will tab it so I did it. Its 99% correct.

Tuning: 1/2 step down

Intro/verse 1 and 2, guitar 1:

eb|-------3--3--3-3-3---------3--3--3-3-3---------3--3--3-3-3---------3--3--3-3-3-------|
Bb|-------3--3--3-3-3---------3--3--3-3-3---------3--3--3-3-3---------3--3--3-3-3-------|
Gb|---------------------------------------------------------------------------------x2--|
Db|--2-------------------0--------------------------------------------------------------|
Ab|------------------------------------------3-------------------3----------------------|
Eb|-------------------------------------------------------------------------------------|
  |
  |  Verse 1 and 2, guitar 2(acoustic):
  |Em                        D                  C
eb|--0-----------------------2---2--2-2-2-----------------------------------------------|
Bb|--0-----------------------3---3--3-3-3-------1---------1--1-1-1-----1-----1-1-1------|
Gb|--0-----------------------2---2--2-2-2-------0---------0--0-0-0-----0-----0-0-0------|
Db|--2-----------------------0---0--0-0-0-------2---------2--2-2-2-----2-----2-2-2------|
Ab|--2------------------------------------------3---------3--3-3-3-----3-----3-3-3------|
Eb|--0----------------------------------------------------------------------------------|
      There's a woman crying out tonight,   Her world has changed, She asks god
      Her only son has died and now her daughter cries, she can't sleep at night,

      Verse 1 and 2 (part 2), guitar 3:
            Em                      D                        C
eb|---------12----------------------14-----------------------15-------------------------|
Bb|-----------------------------------------------------------------13------------------|
Gb|-------------------------------------------------------------------------------------|
Db|-------------------------------------------------------------------------------------|
Ab|-------------------------------------------------------------------------------------|
Eb|-------------------------------------------------------------------------------------|
   Downtown, another day for all the suits and ties, (1)another war to fight,
                                                     (2)there's no regard for life

                 Em                        D                            C
eb|--------------12------------------------14---------------------------15------15------|
Bb|-------------------------------------------------------------------------13------13--|
Gb|-------------------------------------------------------------------------------------|
Db|-------------------------------------------------------------------------------------|
Ab|-------------------------------------------------------------------------------------|
Eb|-------------------------------------------------------------------------------------|
   How do they sleep at night, how can we make things right? Just wanna make this right..

   Chorus:
         Em                       G                      D                         C
eb|------0----0----0-0-0----------3----3----3-3-3--------2-----2---2-2-2---------------|
Bb|------0----0----0-0-0----------3----3----3-3-3--------3-----3---3-3-3-----------1-1-|
Gb|------0----0----0-0-0----------0----0----0-0-0--------2-----2---2-2-2-----------0-0-|
Db|------2----2----2-2-2----------0----0----0-0-0--------0-----0---0-0-0-----------2-2-|
Ab|------2----2----2-2-2----------2----2----2-2-3----------------------------------3-3-|
Eb|------0----0----0-0-0----------3----3----3-3-3--------------------------------------|
   We believe, we believe, we believe, we believe, we believe, we believe, in this life

  Bridge(part 1) :
     Em      G       C            Em      G       C       D
eb|--0-------3--------------------0-------3---------------2-----------------------------|
Bb|--0-------3-------1------------0-------3-------1-------3-----------------------------|
Gb|--0-------0-------0------------0-------0-------0-------2-----------------------------|
Db|--2-------0-------2------------2-------0-------2-------0-----------------------------|
Ab|--2-------2-------3------------2-------2-------3-------------------------------------|
Eb|--0-------3--------------------0-------3---------------------------------------------|

    (part 2)
             Em           G               C
   So this world, is to much, for you to take, just lay down and follow me,
   Em       G              C             D
   I'll be everything you need, in every way

  Last chorus:
     Em                                                      G
eb|-------------------------------------------------------------------------------------|
Bb|--8-7-5-8-7-5-8-7-5-8-7-5-7-8-7-8-7-5-8-7-5-8-7-5-8-7-5-7-8-7---8-7---8-7---8-7------|
Gb|--------------------------------------------------------------7-----7-----7-----7----|
Db|-------------------------------------------------------------------------------------|
Ab|-------------------------------------------------------------------------------------|
Eb|-------------------------------------------------------------------------------------|
                                            D
eb|-------------------------------------------------------------------------------------|
Bb|-8-7---7-8-7---8-7---8-7---8-7---8-7---7-8-7---8-7---8-7---8-7---8-7---7-8-7---8-7---|
Gb|-----7-------7-----7-----7-----7-----7-------5-----5-----5-----5-----5-------5-----5-|
Db|-------------------------------------------------------------------------------------|
Ab|-------------------------------------------------------------------------------------|
Eb|-------------------------------------------------------------------------------------|
                       C
eb|-------------------------------------------------------------------------------------|
Bb|-8-7---8-7---8-7---7-8-7---8-7---8-7---8-7---7-8-7---8-7---8-7---8-7---8-7---7-------|
Gb|-----5-----5-----5-------7-----7-----7-----7-------7-----7-----7-----7-----7---------|
Db|-------------------------------------------------------------------------------------|
Ab|-------------------------------------------------------------------------------------|
Eb|-------------------------------------------------------------------------------------|

Outro:

eb|-------------------------------------------------------------------------------------|
Bb|-8p7p5-8p7p5-8p7p5-8p7p5-5-----------------------------------------------------------|
Gb|-------------------------------------------------------------------------------------|
Db|-------------------------------------------------------------------------------------|
Ab|-------------------------------------------------------------------------------------|
Eb|-------------------------------------------------------------------------------------|

Verse 2:

We are all the same
Human in all our ways and all of pain
(So let it be)
There's a love that could fall down like rain
(Let us see)
Let forgiveness wash away the pain
(What we need)
And no one really knows what they are searching for
(We believe)
This world is crying for so much more


Intro x2
Verse 1
Verse 1 (part 2)
Chorus
Verse 2
Verse 2 (Part 2)
Chorus
Bridge
Bridge (part 2)
Chorus
Last chorus
Outro


albums
tabs

 

1