Search tabs:
Browse artists: 0-9 | A | B | C | D | E | F | G | H | I | J | K | L | M | N | O | P | Q | R | S | T | U | V | W | X | Y | Z
/ / / guitar tab

Good Charlotte - Little Things
Tabbed by: Sean Stinson

Good Charlotte are the band that lives down
the street from me. I've heard this song 
200000 times. So for all you brothas who 
requested it:

Main riff:
|------------------------------------|
|------------------------------------|
|-7-7-7-7----------------------------|
|-7-7-7-7---7-7/6--5-5-5-5--8-8/10---|
|-5-5-5-5---7-7/6--5-5-5-5--8-8/10---|
|-----------5-5/4--3-3-3-3--6-6/8----|

Verse: No guitar. The bassline is just playing
along with power chords

Chorus:
|----------------------------------------|
|----------------------------------------|
|-77777777-------------------------------|
|-77777777-77777777--55555555--88888888--|
|-55555555-77777777--55555555--88888888--|
|----------55555555--33333333--66666666--|

Bridge:
|------------------|
|------------------|
|------------------|
|--5-5-5--8-8-8----|
|--5-5-5--8-8-8----|
|--3-3-3--6-6-6----|

FILL:
|-----------------------------|
|-----------------------------|
|-----------------------------|
|-567891011121314151617171717-|
|-567891011121314151617171717-|
|-345678-9-101112131415151515-|

OUTRO: Just drums.

-------

This is a very easy song. WALDORF IS 
REPRESENTIN'!

Next: Godsmack - Awake

Ta,
Sean Stinson


albums
tabs

 

1