Search tabs:
Browse artists: 0-9 | A | B | C | D | E | F | G | H | I | J | K | L | M | N | O | P | Q | R | S | T | U | V | W | X | Y | Z
/ / / guitar tab

Band: Good Charlotte
Song: Girls and Boys
Standard Tuning
Tabber: Chase Landon
P.M=......

Intro/Verse  Guitar 1
E--------------
B--------------
G---------7----
D----8------8--
A------8-------
E--6-----------

Verse Guitar 2
E-----------------------------------------------------------------
B-----------------------------------------------------------------
G-----------------------------------------------------------------
D--8-8-8-8--0--6-6-6-6--0--8-8-8-8--0--6-6-6-6--0--8-8-8-8-8-8-8--
A--8-8-8-8--0--6-6-6-6--0--8-8-8-8--0--6-6-6-6--0--8-8-8-8-8-8-8--
E--6-6-6-6--0--4-4-4-4--0--6-6-6-6--0--4-4-4-4--0--6-6-6-6-6-6-6--
   .......  .  .......  .  .......  .  ........ .  ..............

Chorus
E---------------------------------------------------------
B----(Play this part softly)------------------------------
G--8-8-8-8-8-8-8--7-7-7-7-7-7-7----(play this part hard)--
D--8-8-8-8-8-8-8--8-8-8-8-8-8-8----6-6-6-6-6-6-6----------
A--6-6-6-6-6-6-6--5-5-5-5-5-5-5----6-6-6-6-6-6-6----------
E----------------------------------4-4-4-4-4-4-4----------

Interlude
E-----------------------------------------
B-----------------------------------------
G--10-12----8-8-8-8----10--12----8-8-8-8--
D--x--x-----x-x-x-x-----x--x-----x-x-x-x--
A--8--10----6-6-6-6-----8--10----6-6-6-6--
E-----------------------------------------

Solo
E---------------------------------------
B---------------------------------------
G--15-15-15-15-15-15-15-15-15----17-17--    x2
D---------------------------------------
A---------------------------------------
E---------------------------------------

E---------------------------------------------------------
B---------------------------------------------------------
G--15-15-15-15---17-17-17-17---19-19-19-19---20-20-20-20--
D---------------------------------------------------------
A---------------------------------------------------------
E---------------------------------------------------------

That’s it thanks for looking and send corrections if needed.


albums
tabs

 

1