Search tabs:
Browse artists: 0-9 | A | B | C | D | E | F | G | H | I | J | K | L | M | N | O | P | Q | R | S | T | U | V | W | X | Y | Z
/ / / guitar tab

Band: Good Charlotte
Song: Hold On
Tuning: ˝ Step Down

I haf seen their live \'n\' hear them many times. I think this is the rite way of playin tis song. 

Intro/Verse
Gtr 1 x6
eb-----------0----------------------0----------------------0-----3-2-0-----------|
Bb-----2--------2-----2-------2--------2-----2-------2--------2---------2-----2--|
Gb--------2--------2-------------2--------2-------------2------------------2-----|
Db--0----------------------0----------------------0------------------------------|
Ab-------------------------------------------------------------------------------|
Eb-------------------------------------------------------------------------------|

Gtr 2 x3
eb--2--3--5--3--2--3--5/7/5------------------------------------------------------|
Bb-------------------------------------------------------------------------------|
Gb-------------------------------------------------------------------------------|
Db-------------------------------------------------------------------------------|
Ab-------------------------------------------------------------------------------|
Eb-------------------------------------------------------------------------------|

Pre-Chorus
Both Gtrs x1
eb--0~----3~-----3---0---3---3--3---0---3-----0~---3~----------------------------|
Bb--2~----3~-----2---2---2---3--2---2---2-----2~---3~----------------------------|
Gb--2~----0~-----3---3---3---2--3---3---3-----2~---0~----------------------------|
Db—-2~----0~-----0---0---0---0--0---0---0-----2~---0~------5-5-5-5-5-5-5-5-------|
Ab--0~----2~-----0---0---0---0--0---0---0-----0~---2~------5-5-5-5-5-5-5-5-------|
Eb--------3~-----0---0---0---0--0---0---0-----0~---3~------3-3-3-3-3-3-3-3-------|
                                                           . . . . . . . .
1st Chorus
Both Gtrs x1
eb-------------------------------------------------------------------------------
Bb-------------------------------------------------------------------------------
Gb--7-7-7-7-7-7-7-7--------------------------------------------------------------
Db—-7-7-7-7-7-7-7-7--7-7-7-7-7-7-7-7--9-9-9-9-9-9-9-9--5-5-5-5-5-5-5-5-----------
Ab--5-5-5-5-5-5-5-5--7-7-7-7-7-7-7-7--9-9-9-9-9-9-9-9--5-5-5-5-5-5-5-5-----------
Eb-------------------5-5-5-5-5-5-5-5--7-7-7-7-7-7-7-7--3-3-3-3-3-3-3-3-----------

Both Gtrs x1
eb-------------------------------------------------------------------------------|
Bb-------------------------------------------------------------------------------|
Gb--7-7-7-7-7-7-7-7--------------------------------------------------------------|
Db--7-7-7-7-7-7-7-7--7-7-7-7-7-7-7-7--9-9-9-9--4-5~------------------------------|
Ab--5-5-5-5-5-5-5-5--7-7-7-7-7-7-7-7--9-9-9-9--4-5~------------------------------|
Eb-------------------5-5-5-5-5-5-5-5--7-7-7-7--2-3~------------------------------|

Play Verse:
Gtr 1 x4
Gtr 2 x2

Play Pre-Chorus x1

2nd Chorus
Both Gtrs x3
eb-------------------------------------------------------------------------------
Bb-------------------------------------------------------------------------------
Gb--7-7-7-7-7-7-7-7--------------------------------------------------------------
Db--7-7-7-7-7-7-7-7--7-7-7-7-7-7-7-7--9-9-9-9-9-9-9-9--5-5-5-5-5-5-5-5-----------
Ab--5-5-5-5-5-5-5-5--7-7-7-7-7-7-7-7--9-9-9-9-9-9-9-9--5-5-5-5-5-5-5-5-----------
Eb-------------------5-5-5-5-5-5-5-5--7-7-7-7-7-7-7-7--3-3-3-3-3-3-3-3-----------


Both Gtrs x1
eb-------------------------------------------------------------------------------
Bb-------------------------------------------------------------------------------
Gb--7-7-7-7-7-7-7-7--------------------------------------------------------------
Db--7-7-7-7-7-7-7-7--7-7-7-7-7-7-7-7--9-9-9-9--4-5-5-5-5-5-5-5-5-----------------
Ab--5-5-5-5-5-5-5-5--7-7-7-7-7-7-7-7--9-9-9-9--4-5-5-5-5-5-5-5-5-----------------
Eb-------------------5-5-5-5-5-5-5-5--7-7-7-7--2-3-3-3-3-3-3-3-3-----------------

Both Gtrs x1
eb-------------------------------------------------------------------------------|
Bb-------------------------------------------------------------------------------|
Gb-------------------------------------------------------------------------------|
Db—-9-9-9-9--4-5-5-5-5-5-5-5-5---------------------------------------------------|
Ab--9-9-9-9--4-5-5-5-5-5-5-5-5---------------------------------------------------|
Eb--7-7-7-7--2-3-3-3-3-3-3-3-3---------------------------------------------------|

Bridge
Gtr 1 x1
eb-------------------------------------------------------------------------------
Bb-------------------------------------------------------------------------------
Gb--6V-6V-6V-6V-6V-6V-6V-6V-7V-7V-7V-7V-7V-7V-7V-7V------------------------------
Db—------------------------------------------------------------------------------
Ab-------------------------------------------------------------------------------
Eb-------------------------------------------------------------------------------

Both Gtrs x1
eb-------------------------------------------------------------------------------
Bb-------------------------------------------------------------------------------
Gb-------------------------------------------------------------------------------
Db--4-4-4-4-4-4-4-4--------------------------------------------------------------
Ab--4-4-4-4-4-4-4-4--------------------------------------------------------------
Eb--2-2-2-2-2-2-2-2--------------------------------------------------------------

Gtr 1 x1
eb-------------------------------------------------------------------------------
Bb-------------------------------------------------------------------------------
Gb--6V-6V-6V-6V-6V-6V-6V-6V-7V-7V-7V-7V-7V-7V-6-9--------------------------------
Db-------------------------------------------------------------------------------
Ab-------------------------------------------------------------------------------
Eb-------------------------------------------------------------------------------

Both Gtrs x1
eb-------------------------------------------------------------------------------
Bb-------------------------------------------------------------------------------
Gb-------------------------------------------------------------------------------
Db—-4-4-4-4-4-4-4-4--------------------------------------------------------------
Ab--4-4-4-4-4-4-4-4--------------------------------------------------------------
Eb--2-2-2-2-2-2-2-2--------------------------------------------------------------

Gtr 2 x1
eb---------9----------9----------9----------9------------------------------------
Bb-----10---------10---------10---------10---------------------------------------
Gb--7----------7----------7----------7-------------------------------------------
Db—------------------------------------------------------------------------------
Ab-------------------------------------------------------------------------------
Eb-------------------------------------------------------------------------------

Both Gtrs x1
eb-------------------------------------------------------------------------------
Bb-------------------------------------------------------------------------------
Gb-------------------------------------------------------------------------------
Db--4-4-4-4-4-4-4-4--------------------------------------------------------------
Ab--4-4-4-4-4-4-4-4--------------------------------------------------------------
Eb--2-2-2-2-2-2-2-2--------------------------------------------------------------

Gtr 2 x1
eb---------9----------9----------9----------9------------------------------------
Bb-----10---------10---------10---------10---------------------------------------
Gb--7----------7----------7----------7-------------------------------------------
Db—------------------------------------------------------------------------------
Ab-------------------------------------------------------------------------------
Eb-------------------------------------------------------------------------------

Both Gtrs x1
eb-------------------------------------------------------------------------------
Bb-------------------------------------------------------------------------------
Gb-------------------------------------------------------------------------------
Db—-4-4-4-4-4-4-4-4--------------------------------------------------------------
Ab--4-4-4-4-4-4-4-4--------------------------------------------------------------
Eb--2-2-2-2-2-2-2-2--------------------------------------------------------------

Gtr 1 x1
eb-------------------------------------------------------------------------------
Bb-------------------------------------------------------------------------------
Gb-------------------------------------------------------------------------------
Db—------------------------------------------------------------------------------
Ab--4V-4V-4V-4V-4V-4V-4V-4V---5V-5V-5V-5V-5V-5V-5V-5V----------------------------
Eb-------------------------------------------------------------------------------

Gtr 2 x1
eb---------9----------9----------9----------9------------------------------------
Bb-----10---------10---------10---------10---------------------------------------
Gb--7----------7----------7----------7-------------------------------------------
Db—------------------------------------------------------------------------------
Ab-------------------------------------------------------------------------------
Eb-------------------------------------------------------------------------------

Both Gtrs x1
eb-------------------------------------------------------------------------------
Bb-------------------------------------------------------------------------------
Gb-------------------------------------------------------------------------------
Db—-4-4-4-4-4-4-4-4--------------------------------------------------------------
Ab--4-4-4-4-4-4-4-4--------------------------------------------------------------
Eb--2-2-2-2-2-2-2-2--------------------------------------------------------------

Gtr 1 x1
eb-------------------------------------------------------------------------------
Bb-------------------------------------------------------------------------------
Gb-------------------------------------------------------------------------------
Db—------------------------------------------------------------------------------
Ab--4V-4V-4V-4V-4V-4V-4V-4V---5V-5V-5V-5V-5V-5V-5V-5V----------------------------
Eb-------------------------------------------------------------------------------

Gtr 2 x1
eb---------9----------9----------9----------9------------------------------------
Bb-----10---------10---------10---------10---------------------------------------
Gb--7----------7----------7----------7-------------------------------------------
Db—------------------------------------------------------------------------------
Ab-------------------------------------------------------------------------------
Eb-------------------------------------------------------------------------------

Both Gtrs x1
eb-------------------------------------------------------------------------------|
Bb-------------------------------------------------------------------------------|
Gb-------------------------------------------------------------------------------|
Db—-4-4-4-4-4-4-4-4---5-5-5-5-5-5-5-5--------------------------------------------|
Ab--4-4-4-4-4-4-4-4---5-5-5-5-5-5-5-5--------------------------------------------|
Eb--2-2-2-2-2-2-2-2---3-3-3-3-3-3-3-3--------------------------------------------|

Outro 
Both Gtrs x5 [rest during (its not over)]
eb-------------------------------------------------------------------------------
Bb-------------------------------------------------------------------------------
Gb--7-7-7-7-7-7-7-7--------------------------------------------------------------
Db—-7-7-7-7-7-7-7-7--7-7-7-7-7-7-7-7--9-9-9-9-9-9-9-9--5-5-5-5-5-5-5-5-----------
Ab--5-5-5-5-5-5-5-5--7-7-7-7-7-7-7-7--9-9-9-9-9-9-9-9--5-5-5-5-5-5-5-5-----------
Eb-------------------5-5-5-5-5-5-5-5--7-7-7-7-7-7-7-7--3-3-3-3-3-3-3-3-----------

Both Gtrs x1
eb-------------------------------------------------------------------------------
Bb-------------------------------------------------------------------------------
Gb--7-7-7-7-7-7-7-7--------------------------------------------------------------
Db--7-7-7-7-7-7-7-7--7-7-7-7-7-7-7-7--9-9-9-9--4-5-5-5-5-5-5-5-5-----------------
Ab--5-5-5-5-5-5-5-5--7-7-7-7-7-7-7-7--9-9-9-9--4-5-5-5-5-5-5-5-5-----------------
Eb-------------------5-5-5-5-5-5-5-5--7-7-7-7--2-3-3-3-3-3-3-3-3-----------------

Both Gtrs x1
eb-------------------------------------------------------------------------------|
Bb-------------------------------------------------------------------------------|
Gb-------------------------------------------------------------------------------|
Db--9-9-9-9--4-5~----------------------------------------------------------------|
Ab--9-9-9-9--4-5~----------------------------------------------------------------|
Eb--7-7-7-7--2-3~----------------------------------------------------------------|

Outro
Gtr 2 x1
eb---------9----------9----------9---------------9~~-----------------------------|
Bb-----10---------10---------10---------10-------10~-----------------------------|
Gb--7----------7----------7----------7-----------7~~-----------------------------|
Db—------------------------------------------------------------------------------|
Ab-------------------------------------------------------------------------------|
Eb-------------------------------------------------------------------------------|


albums
tabs

 

1