Search tabs:
Browse artists: 0-9 | A | B | C | D | E | F | G | H | I | J | K | L | M | N | O | P | Q | R | S | T | U | V | W | X | Y | Z
/ / / guitar tab

intro
e-11-11-13-13-11-11-10-10---
b---------------------------
g---------------------------  6x
d---------------------------
a---------------------------
E---------------------------

1st riff
e---------------------------
b---------------------------
g---------------------------
d-1-1--8-6--6-8--1-1--8-6---
a-1-1--8-6--6-8--1-1--8-6---
E-1-1--8-6--6-8--1-1--8-6---

Verse
e------------------------------------
b------------------------------------
g------------------------------------
d-1--------10--------6--------88888-- (2x)
a-1-(12x)--10-(12x)--6-(12x)--88888--
E-1--------10--------6--------88888--

pre-chorus
e---------------------------
b-----6-----6---------------
g----6-6---6-6--8888888-----       
d--6-----8------8888888-----(2x)     
a--6-----8------6666666-----        
E--6-----8------------------

e-----------------------------------------
b-----------------------------------------
g----------------8------------------------
d--6------8------8-(5x)-10------6------8--
a--6-(5x)-8-(5x)-6------10-(5x)-6-(8x)-8--
E--6------8-------------10------6------8--

chorus
e-------------------------------
b-------------------------------
g-------------------------------
d-1-1--8-6--6-8--1-1--8-6--6-8--
a-1-1--8-6--6-8--1-1--8-6--6-8--
E-1-1--8-6--6-8--1-1--8-6--6-8--

bridge- 1st guitar
e-----------------
b-----------------
g-----------------
d-----13--13------(12x) 
a---13--13--13----
E-13--------------

bridge- 2nd guitar
e------21--21----  not sure of the e, my guitar doesn't have that many frets
b----18--18--18--  
g--16------------(4x) in the middle
d----------------
a----------------
E----------------

e-----------------
b-----------------
g------15--15-----
d----15--15--15---(4x) at end
a--13-------------
E-----------------
intro
1st riff
verse
pre chorus
chorus
verse
pre chorus
chorus
bridge
chorus
intro
1st riff


albums
tabs

 

1