Search tabs:
Browse artists: 0-9 | A | B | C | D | E | F | G | H | I | J | K | L | M | N | O | P | Q | R | S | T | U | V | W | X | Y | Z
/ / / guitar tab

the rest of the tabs of this songs SUCK!! they are off. what is wrong with you
people? ALL and i mean ALL good charlotte song are in NORMAL TUNING!!! here is
the CORRECT version of  "the story of my old man".

intro: 
e|--------------------------------------------------------- 
b|--------------------------------------------------------- 
g|--------------------------------------------------------- 
d|-55555555------------------------------------------------ 
a|-55555555--------(4x)------------------------------------ 
E|-33333333------------------------------------------------ 

verse 
e|--------------------------------------------------------- 
b|--------------------------------------------------------- 
g|-5------------------------------------------------------- 
d|-5------5-------7---------------------------------------- 
a|-3------5-------7---------------------------------------- 
E|--------3-------5---------------------------------------- 

chorus 
e|--------------------------------------------------------- 
b|--------------------------------------------------------- 
g|-5------------------------------------------------------- 
d|-5------5-------1---------------------------------------- 
a|-3------5-------3---------------------------------------- 
E|--------3-------3---------------------------------------- 

cool interlude 
e|--------------------------------------------------------- 
b|--------------------------------------------------------- 
g|--------------------------------------------------------- 
d|----------------5---------------------------------------- 
a|----------5---------------------------------------------- 
e|---3----------------------------------------------------- 

order: 
intro 
verse 
chorus 
cool interlude 
verse just play 3-5-5 ,2 times at the beginning of it (slight distortion) 
chorus 
interlude 
chorus play (1-3-3 more at the end) 
verse


albums
tabs

 

1