Search tabs:
Browse artists: 0-9 | A | B | C | D | E | F | G | H | I | J | K | L | M | N | O | P | Q | R | S | T | U | V | W | X | Y | Z
/ Green Day / Shenanigans (2002) / Espionage guitar tab

Espionage
Album: Shenanigans
Tabbed by: Víctor Mañas defunct_guardian@hotmail.com

(el hotmail es del messenger asi que hablad kon migo a traves de él)
(si teneis dudas)

Esta canción es mu facil komo podreis ver a continuación:



Introducción:
--------
    Em
1:--0--
2:--0--
3:--0--
4;--2--
5:--2--
6:--0-

Riff facil (1) :
----------------

1:---------------------------------------------|
2:---------------------------------------------|
3:---------------------------------------------|
4:---------------------------------------------|
5:-------------2-2----1-1-1-0-----0-0----------|
6:--0-0--3-3-------3-----------3------3-2------|  4x

sigue: (riff2)

1:---------------------------------------------|
2:---------------------------------------------|
3:---------------------------------------------|
4: -------------2-2----1-1-1-0-----0-0---------|
5: --0-0--3-3-------3----------3-------3-2-----|
6:---------------------------------------------|  2x


Riff 3:
---------
Con las trompetas i todo ese royo

Guitar1 -
    B   C   B   C   B   C   D#
1:-----------------------------
2:-----------------------------
3:--4---5---4---5---4---5---9--
4:--4---5---4---5---4---5---9--
5:--2---3---2---3---2---3---6--
6:-----------------------------

Guitar2 -  en ete disco kasi no se aprecia pero en el single de hitchin a'ride s'ecuxa

1:---------------------------------------------------
2:---------------------------------------------------
3:------4-----------5-----------4-----------5--------
4:----4---4-------5---5-------4---4-------5---5------
5:---2-----2--0--3-----3--0--2-----2--0--3-----3--0--
6:---------------------------------------------------

1:---------------------------------------------------------------
2:---------------------------------------------------------------
3:----4-------------4------------------------------------------
4:--4---4---------4---4--------5---5---5---5----9---9---9---9--
5:-2-----2--2-2--2-----2-----3---3---3---3----6---6---6---6----
6:---------------------------------------------------------------

Riff4 (solo) :   mu simple

1:-10-10-10--9-9-9--8-8--7-7-7-7-7-7--10-10-10--9-9-9--8-8--7-7-7-7-7-7
2:---------------------------------------------------------------------
3:---------------------------------------------------------------------
4:---------------------------------------------------------------------
5:---------------------------------------------------------------------
6:---------------------------------------------------------------------

1:-15-15-15--14-14-14--13-13--12-12-12-12-12-12--15-15-15--14-14-14--13-13-
2:-------------------------------------------------------------------------
3:-------------------------------------------------------------------------
4:-------------------------------------------------------------------------
5:-------------------------------------------------------------------------
6:-------------------------------------------------------------------------

1:-12-12-12-12-12-12--10-10-10--9-9-9--8-8--7-7-7-7-7-7--10-10-10--9-9-9--
2:------------------------------------------------------------------------
3:------------------------------------------------------------------------
4:------------------------------------------------------------------------
5:------------------------------------------------------------------------
6:------------------------------------------------------------------------

1:8-8--7-7-7-7-7-7--
2:------------------
3:------------------
4:------------------
5:------------------
6:------------------

bueno, eso

Ahora el bajo:

INTRO/:
                            (x4)
|---------|---------|-----------|
|---------|---------|-----------|
|---------|---------|-----------|
|-0-------|---------|-----------|


Riffs 1, 2 & 4:
                (x8)                (x4)                (x4)
|-------------------|-------------------|-------------------|
|*-----------------*|*-----------------*|*-----------------*|
|*-----------------*|*-0-0-3-3-0-0-3-3-*|*-----------------*|
|--0-0-3-3-0-0-3-3--|-------------------|--0-0-3-3-0-0-3-3--|


Riff 3
                              (x2)
|----------------|----------------|---------------|---------------|
|*---------------|---------------*|---------------|---------------|
|*-2---2---2-0-2-|-3---3---3-5-3-*|-2---2---2---2-|-2---2---2-0-2-|
|----------------|----------------|---------------|---------------|



|-----------------|-----------------|
|-----------------|-1-1-1-1-1-1-1-1-|
|-3-3-3-3-3-3-3-3-|-----------------|
|-----------------|-----------------|


Y ahora tenéis una buena estructura como tiene que ser kon el bajo correspondiente
en el de shenanigans

Guitarra:    Bajo:

intro        intro

riff1 x1     intro x1
riff1 x1     intro x1      parte 1
riff1 x4     riff1 x8
riff2 x2     riff2 x4
riff1 x2     riff1 x4
riff3 x1     riff3 x1


riff(pm) x4  riff1 x8
riff(pm) x2  riff2 x4      parte 2
riff(pm) x2  riff1 x4
riff3    x1  riff3 x1


riff4 x1     riff1 x8
             riff2 x4      parte 3
             riff1 x4
riff3 x1     riff3 x1


intro x1     intro x1
riff1 x1     intro x1
riff1 x1     intro x1      parte 4
riff1 x4     riff1 x8
riff2 x2     riff2 x4
riff1 x2     riff1 x4
riff3 x1     riff3 x1
intro        intro

Si la copias, que pongas mi nombre por lo menos, i le hotmail


Green Day albums
2004 American Idiot
2002 Shenanigans
2001 International Superhits!
2000 Warning
1997 Nimrod
1995 Insomniac
1994 Dookie
1992 Kerplunk
1991 1039/Smoothed Out Slappy Hours
Shenanigans tabs
01Suffocate tabbass tab
02Desensitized tabbass tab
03You Lied tabbass tab
04Outsider tabbass tab
05Don't Wanna Fall in Love tabbass tab
06Espionage tabbass tab
07I Want to Be on T.V. tabbass tab
08Scumbag tabbass tab
09Tired of Waiting for You tabbass tab
10Sick of Me tabbass tab
11Rotting tabbass tab
12Do Da Da tabbass tab
13On the Wagon tabbass tab
14Ha Ha You're Dead tabbass tab

 

1