Search tabs:
Browse artists: 0-9 | A | B | C | D | E | F | G | H | I | J | K | L | M | N | O | P | Q | R | S | T | U | V | W | X | Y | Z
/ Green Day / Shenanigans (2002) / Tired of Waiting for You guitar tab

Green Day - Tired of Waiting For You
Tabbed By: Pseudo
Email: acook1@attbi.com

Tuning: Standard (E A D G B E)

This song is from the album "Shenanigans", and since
it's a B-Side, it doesn't sound much like a
Green Day song. Basically the whole song is just
3 different parts repeated. I'm not sure if Billie Joe
still tuned a half step down when this song was written,
so I just tabbed it as it sounds.

Guitar 1 (lead)-Clean
Guitar 2 (ryhtm)-Moderate Distortion

Key:

/-slide down
\-slide up
~-let note ring

Intro-Guitar 1:

    F#      E
e------------------|  x2
B-------2-----1----|
G--------3-----0---|
D-----4------2-----|
A------------------|
E---/2------0------|

Guitar 2 at 0:01

e----------------|   x2 (then bass and drums come in)
B----------------|
G----------------|
D---2/-4--\4-2---|
A---2/-4--\4-2---|
E---0/-2--\2-0---|

Verse Guitar 1 at 0:04

    F#      E
e------------------|  x12
B-------2-----1----|
G--------3-----0---|
D-----4------2-----|
A------------------|
E---/2------0------|

Verse Guitar 2 at 0:04

e----------------|
B----------------|
G----------------|
D---/-4--\4-2-2--|
A---/-4--\4-2-2--|
E---/-2--\2-0-0--|

Pre-Chorus Guitars 1 and 2 at 0:26 (for the pre-chorus
                                    Guitar 1 plays
e----------------|                   Barre chords)
B----------------|  x4
G----------------|
D---2--4--2--4---|
A---2--4--2--4---|
E---0--2--0--2---|

0:34

e-------|
B-------|
G-------|
D---222-|
A---222-|
E---000-|

0:35

e----------------| x4
B----------------|
G------6-----6---|
D---4--6--4--6---|
A---4--4--4--4---|
E---2-----2------|

0:41

e---------|
B---------| (over drum fill)
G---------|
D---4~~~~-|
A---4~~~~-|
E---2~~~~-|

Chorus Guitars 1 and 2 at 0:43

   F#   A#m  E5   G#5
e---2~~~-6~~~-----------|
B---2~~~-6~~~------6~~~-|
G---3~~~-6~~~------6~~~-|
D---4~~~-8~~~-2~~~-6~~~-|
A---4~~~-8~~~-2~~~-4~~~-|
E---2~~~-6~~~-0~~~------|

Repeat F# and A#m, then...(0:55)

    E5       G#5
e---------------------|
B---------------------|
G------------66666666-|
D---22222222-66666666-|
A---22222222-44444444-|
E---00000000----------|

2nd Verse at 1:03

2nd Pre-Chorus at 1:23

2nd Chorus at 1:38

Guitar 1 Fill at 1:45

  G#5
e---------|
B------6--|
G---6-6---|
D---------|
A---------|
E---------|

3rd Verse at 1:58 (Guitar 1 doesn't play lead)

Guitar 2 Variation

   F#5  E5
e------------|
B------------|
G------------|
D---444-2222-|
A---444-2222-|
E---222-0000-|

End

   F#5
e-----------|
B-----------|
G-----------|
D---4~~~~---|
A---4~~~~---|
E---2~~~~---|

That's it.


Green Day albums
2004 American Idiot
2002 Shenanigans
2001 International Superhits!
2000 Warning
1997 Nimrod
1995 Insomniac
1994 Dookie
1992 Kerplunk
1991 1039/Smoothed Out Slappy Hours
Shenanigans tabs
01Suffocate tabbass tab
02Desensitized tabbass tab
03You Lied tabbass tab
04Outsider tabbass tab
05Don't Wanna Fall in Love tabbass tab
06Espionage tabbass tab
07I Want to Be on T.V. tabbass tab
08Scumbag tabbass tab
09Tired of Waiting for You tabbass tab
10Sick of Me tabbass tab
11Rotting tabbass tab
12Do Da Da tabbass tab
13On the Wagon tabbass tab
14Ha Ha You're Dead tabbass tab

 

1