Search tabs:
Browse artists: 0-9 | A | B | C | D | E | F | G | H | I | J | K | L | M | N | O | P | Q | R | S | T | U | V | W | X | Y | Z
/ Hammerfall / Renegade (2000) / Renegade guitar tab

Hammerfall - Renegade
Tabbed By: Martin Kahnberg
Submitted by: Himmelfarht
Email: this_is_the_prophecy@hotmail.com

Tuning: (D# G# C# F# A# D#)

   Intro riff:
D#||------------------|------------------|------------------|
A#||------------------|------------------|------------------|
F#||------------------|------------------|------------------|
C#||-7-----7-----9-10-|-7-----7-----9-10-|-7-----7-----9-10-|
G#||-0-0-0-0-0-0------|-0-0-0-0-0-0------|-8-8-8-8-8-8------|
D#||------------------|------------------|------------------|
  ||                  |                  |                  |
D#||------------------|------------------|------------------|
A#||------------------|------------------|------------------|
F#||-2-----2-----2----|-2-----2-----2----|------------------|
C#||-2-----2-----2----|-2-----2-----2----|-3-----3-----3----|
G#||-0-0-0-0-0-0-0-0--|-0-0-0-0-0-0-0-0--|-3-----3-----3----|
D#||------------------|------------------|-1-1-1-1-1-1-1-1--|

 1st&3rd repeat:         2nd&4th repeat:
|-----------------------|-------------------------|
|-----------------------|-------------------------|
|-----------------------|-------------------------|
|-12----10----9-----6---|-12----10----14----10----|
|-10-10-10-10-10-10-7-7-|-10-10-10-10-10-10-10-10-|
|-----------------------|-------------------------|
|                       |                         |
|-----------------------|-------------------------|
|-----------------------|-------------------------|
|-----------------------|--------------9-----5----|
|-5-----5------2--------|--5-----5-----9-----5----|
|-5-----5------2--------|--5-----5-----7--7--3--3-|
|-3-3-3-3-3-3--0--------|--3--3--3--3-------------|


 Riff 1:                     See the outlaw stands alone...
|----------|----------------|----------|----------------|
|----------|----------------|----------|----------------|
|-2--------|----------9--5--|-2--------|----4 bars rest-|
|-2--------|----------9--5--|-2--------|----------------|
|-0--------|----------7--3--|-0--------|----------------|
|----------|----------------|----------|----------------|
|          |                |          |                |
|----------|----------------|----------|----------------|
|----------|----------------|----------|----------------|
|-2--------|-------------5--|-2--------|----4 bars rest-|
|-2--------|----------2--3--|-2--------|----------------|
|-0--------|----------2--3--|-0--------|----------------|
|----------|----------0-----|----------|----------------|

 ...now is his home
|-----------|                            |-----|-----|
|-----------|  repeat once, than bridge: |-----|-----|
|-5----4----|                            |--2--|-----|
|-5----4----|                            |--2--|--5--|
|-3----2----|                            |--0--|--5--|
|-----------|                            |-----|--3--|


 Riff 2:
 An outlaw chasing outlaws...       *(5) play on second repeat instead of 8
|-----------------|-----------------|-----------------|-----------------|
|-----------------|-----------------|-----------------|-----------------|
|-----------------|-----------------|-----------------|-----------------|
|-3-3-3-3-3-3-3-3-|-3-3-3--3----5---|-7-7-7-7-7-7-7-7-|-7-7-7------(5)--|
|-3-3-3-3-3-3-3-3-|-3-3-3-----------|-7-7-7-7-7-7-7-7-|-7-7-7--7----8---|
|-1-1-1-1-1-1-1-1-|-1-1-1-----------|-5-5-5-5-5-5-5-5-|-5-5-5-----------|
|                 |                 |                 |                 |
|-----------------|-----------------|-----------------|-----------------|
|-----------------|-----------------|-----------------|-----------------|
|-----------------|-----------------|-----------------|-----------------|
|-3-3-3-3-3-3-3-3-|-3-3-3-3-3-3-5-5-|-7-7-7-7-7-7-7-7-|-7-7-7-7-7-7-7-7-|
|-3-3-3-3-3-3-3-3-|-3-3-3-3-3-3-5-5-|-7-7-7-7-7-7-7-7-|-7-7-7-7-7-7-7-7-|
|-1-1-1-1-1-1-1-1-|-1-1-1-1-1-1-3-3-|-5-5-5-5-5-5-5-5-|-5-5-5-5-5-5-5-5-|

              *(5) same as before    1st ending...
|-----------------|-----------------|-----------------|-----------------|
|-----------------|-----------------|-----------------|-----------------|
|-----------------|-----------------|-----------------|-----------------|
|-5-5-5-5-5-5-5-5-|-5-5-5-(5)---3---|-7-7-7-7-5-5-5-5-|-3-3-3-3-2-2-2-2-|
|-5-5-5-5-5-5-5-5-|-5-5-5--5--------|-7-7-7-7-5-5-5-5-|-3-3-3-3-2-2-2-2-|
|-3-3-3-3-3-3-3-3-|-3-3-3-----------|-5-5-5-5-3-3-3-3-|-1-1-1-1-0-0-0-0-|
|                 |                 |                 |                 |
|-----------------|-----------------|-----------------|-----------------|
|-----------------|-----------------|-----------------|-----------------|
|-----------------|-----------------|-----------------|-----------------|
|-5-5-5-5-5-5-5-5-|-5-5-5-5-5-5-5-5-|-7-7-7-7-5-5-5-5-|-3-3-3-3-2-2-2-2-|
|-5-5-5-5-5-5-5-5-|-5-5-5-5-5-5-5-5-|-7-7-7-7-5-5-5-5-|-3-3-3-3-2-2-2-2-|
|-3-3-3-3-3-3-3-3-|-3-3-3-3-3-3-3-3-|-5-5-5-5-3-3-3-3-|-1-1-1-1-0-0-0-0-|

                                     2nd ending...
				|-----------------|-----------------|
			        	|-----------------|-----------------|
	  			|-----------------|-----------------|
				|-2-2-2-2-2-2-2-2-|-2---------------|
				|-2-2-2-2-2-2-2-2-|-2-slide---------|
				|-0-0-0-0-0-0-0-0-|-0---------------|


Chorus:
 Renegade...
|-----------|----------------|-----------|----------------|
|-----------|----------------|-----------|----------------|
|-----------|----------------|-----------|----------------|
|-7---7---7-|--7-7-7-7-7-7-7-|-3---3---3-|--3-3-3-3-3-3-3-|
|-7---5---7-|--7-7-7-7-7-7-7-|-3---3---3-|--3-3-3-3-3-3-3-|
|-5---5---5-|--5-5-5-5-5-5-5-|-1---1---1-|--1-1-1-1-1-1-1-|

|-----------|----------------|----------------|-----------|
|-----------|----------------|----------------|-----------|
|-5---5---5-|--5-5-5-5-5-5-5-|----------------|-----------|
|-5---7---5-|--5-5-5-5-5-5-5-|-5--5-5-5-5-5-5-|-3----2----|
|-3---3---3-|--3-3-3-3-3-3-3-|-5--5-5-5-5-5-5-|-3----2----|
|-----------|----------------|-3--3-3-3-3-3-3-|-1----0----|
 repeat


 Riff 3:
 On through the night...
|---|------------------|---|-----------------|
|---|------------------|---|-----------------|
|---|-10-----9-----7---|---|-9-----7-----5---|
|---|----7-7---7-7---7-|---|---7-7---7-7---7-|
|---|------------------|---|-----------------|
|---|------------------|---|-----------------|
|   |                  |   |                 |
|---|------------------|---|-----------------|
|---|------------------|---|-----------------|
|-7-|-(7)--------------|---|-----------------|
|-7-|-(7)--------------|-7-|-(7)-------------|
|-5-|-(5)--------------|-7-|-(7)-------------|
|---|------------------|-5-|-(5)-------------|

 1st repeat:
|---|-----------------|---|---|---|
|---|-----------------|---|---|---|
|---|-7-----5-----4---|---|---|-5-|
|---|---5-5---5-5---5-|---|-7-|-5-|
|---|-----------------|---|-7-|---|
|---|-----------------|---|---|---|
|   |                 |   |   |   |
|---|-----------------|---|---|---|
|---|-----------------|---|---|---|
|---|-----------------|---|-5-|-7-|
|-5-|-(5)-------------|-7-|-5-|-7-|
|-5-|-(5)-------------|-7-|-3-|-5-|
|-3-|-(3)-------------|-5-|---|---|

 2nd repeat:
|---|------------------|---|
|---|------------------|---|
|---|-8-----9-----11---|-9-|
|---|---9-9---9-9----9-|-9-|
|---|------------------|---|
|---|------------------|---|
|   |                  |   |
|---|------------------|---|
|---|------------------|---|
|-4-|-(4)--------------|---|
|-4-|-(4)--------------|-2-|
|-2-|-(2)--------------|-2-|
|---|------------------|-0-|


Riff 4:
|-----------------|----------------|-----------------|-------------|
|-----------------|----------------|-----------------|-------------|
|-----------------|----------------|-----------------|--------2----|
|-----------------|----------------|-----------------|--------2----|
|-------5---2---4-|----------------|-------5---2---4-|--------0----|
|-2-2-2---x---x---|--2-2-2-4-5-4-0-|-2-2-2---x---x---|--2-2-2------|
                                    1st repeat:
|-----------------|----------------|---------------|-------------|
|-----------------|----------------|---------------|-------------|
|-----------------|----------------|-7-------------|-9-----------|
|-----------------|----------------|-7-------------|-9-----------|
|-------5---2---4-|----------------|-5-------------|-7-----------|
|-2-2-2---x---x---|--2-2-2-4-5-4-0-|---------------|-------------|
                                    2nd repeat:
                                   |---------------|-------------|
                                   |---------------|-------------|
                                   |---------------|-------------|
                                   |-4-------------|-2-----------|
                                   |-4-------------|-2-----------|
                                   |-2-------------|-0-----------|


Solo riff:
|---|---|---|---|---|---|---|---|---|---|---|---|---|---|---|---|
|---|---|---|---|---|---|---|---|---|---|---|---|---|---|---|---|
|-7-|---|---|---|---|---|---|-5-|-7-|---|---|---|-4-|---|---|---|
|-7-|---|-7-|---|-5-|---|-7-|-5-|-7-|---|-7-|---|-4-|---|-2-|---|
|-5-|---|-7-|---|-5-|---|-7-|-3-|-5-|---|-7-|---|-2-|---|-2-|---|
|---|---|-5-|---|-3-|---|-5-|---|---|---|-5-|---|---|---|-0-|---|


Ending riff:
Play intro riff only with first repeat, on second play:
|------------------|------------------|------------------|
|------------------|------------------|------------------|
|------------------|------------------|------------------|
|-7-----7-----9-10-|-7-----7-----9-10-|-7-----7-----9-10-|
|-0-0-0-0-0-0------|-0-0-0-0-0-0------|-8-8-8-8-8-8------|
|------------------|------------------|------------------|
|                  |                  |                  |
|------------------|------------------|------------------|
|------------------|------------------|------------------|
|-2----------------|-2----------------|------------------|
|-2----------------|-2----------------|-3----------------|
|-0----------------|-0----------------|-3----------------|
|------------------|------------------|-1----------------|

|-------------------------|----||
|-------------------------|----||
|-------------------------|-2--||
|-12----10----14----10----|-2--||
|-10-10-10-10-10-10-10-10-|-0--||
|-------------------------|----||
|                         |    ||
|-------------------------|----||
|-------------------------|----||
|-------------------------|-2--||
|-5--5--5--5--5--5--2-----|-2--||
|-5--5--5--5--5--5--2-----|-0--||
|-3--3--3--3--3--3--0-----|----||


SONG ORDER:
Motorcycle intro
Intro riff
Riff 1
Bridge
Riff 2 (on 2nd time play notes in brackets instead of those underneath)
Chorus
Riff 1
Bridge
Riff 2 (on 2nd time play notes in brackets instead of those underneath)
Chorus
Riff 3
Pickslide
Riff 4
Solo riff
Intro riff (only first 2 repeats, on 1st repeat only 1st guitar)
Pickslide
Chorus 2x
Ending riff
Motorcycle outro



Solo:

Transcribed by Fx :)
Don't take this solo transcription seriously,this is just the way I play it.
It might be close,it sounds somehow similarly...
I would be very pleased if someone corrected me or commented all this.
Please email me at scorstin@yahoo.com
UP THE IRONS!!!


               this sounds better when played with harmonics
  D5           /                A5
|-------------13b15-13b14----|---------------------------|
|-15~---15-17-------------15-|---------------------------|
|----------------------------|-14~------14------------14-|
|----------------------------|-------15----15-12---15----|
|----------------------------|---------------------------|
|----------------------------|---------------------------|

  G5                              A5           C5
|-------------------------------|-------------------------------------|
|---------12-13b15--13-12h13p12-|-------17-18-20-18-17----17----------|
|-12---12-----------------------|-14~------------------19----19-17-16-|
|-------------------------------|-------------------------------------|
|-------------------------------|-------------------------------------|
|-------------------------------|-------------------------------------|
				   > this is 100% not right...   <
                                         I play it like this because I
                                         am not able to play it as fast
                                         as they do...

  D5                                 A5
|-------------13b15-13b14----------|----------15b17-15b17---13-15-|
|-15~---15-17-------------13h15p13-|------------------------------|
|----------------------------------|-14~---12---------------------|
|----------------------------------|------------------------------|
|----------------------------------|------------------------------|
|----------------------------------|------------------------------|

  B5                          E5
|-17b19--b19-b19-b19--------|-22b24----|
|---------------------------|----------|
|---------------------------|----------|
|---------------------------|----------|
|---------------------------|----------|
|---------------------------|----------|
       >hold bend & strike
        the string  <


Hammerfall albums
2005 Chapter V: Unbent, Unbowed, Unbroken
2002 Crimson Thunder
2000 Renegade
1998 Legacy Of Kings
1997 Glory To The Brave
Renegade tabs
01Templars Of Steel tabbass tab
02Keep The Flame Burning tabbass tab
03Renegade tabbass tab
04Living in Victory tabbass tab
05Always Will Be tabbass tab
06The Way Of The Warrior tabbass tab
09Raise the Hammer tabbass tab

 

1