Search tabs:
Browse artists: 0-9 | A | B | C | D | E | F | G | H | I | J | K | L | M | N | O | P | Q | R | S | T | U | V | W | X | Y | Z
/ / / guitar tab

Hanson - In the city
Tabbed By: hanson_fan
Email: iwishit_didnthave_tobesobad@hotmail.com

Tuning: Standard (E A D G B E)



In The City
(I. Hanson/T. Hanson/Z. Hanson)
From the album - "This Time Around"
Transcribed by Colleen Plein (ThinknOfU3@aol.com)

Chords:   F   G#   A#   C   D#
E         8    4    6   3    6
B        10    4    6   5    8
G        10    5    7   5    8
D        10    6    8   5    8
A         8    6    8   3    6
E         X    4    6   X    X

X - means don't strum that string

Opening riff:
E---------------------------------------------------------------------
B---------------------------------------------------------------------
G---------------------------------------------------------------------
D------------------------------3--1-----------------------------1-3---  2x
A---1--3-3--1--3--1--3--1-3-3--------1--3-3--1--3--1--3--1-3-3--------
E---------------------------------------------------------------------

Verse riff (the same thing but shortened):
E----------------------------------------------
B----------------------------------------------
G----------------------------------------------
D------------------------------3--1------------
A---1--3-3--1--3--1--3--1-3-3--------1--3-3----
E----------------------------------------------

                                 riff
I see you walking out that door
                                     riff
And you know you can't hide no more
F                                                  riff
If I asked you now I know you wouldn't give it up
F
If I asked you how you'd give that look to kill
G#                            A#
Know it gives you a chill but    it gives me a thrill to say


Chorus:
C           D#              F
Do you love me, do you love me
       A#
Do you love me little pretty
C            D#               F
Can you tell me, can you tell me
             A#
What's going on in the city


Repeat opening riff

You stand there trying to look so sweet
Every you say is so full of deceit
If I asked you how you'd give that look to kill
I know it gives you a chill but oh it gives me a thrill to say

Repeat Chorus

C
I'm gonna ask you once again
                                             C  D#  F  D#  F  C
You gotta tell me once again do you love me
I'm gonna ask you once again
You gotta tell me once again do you love me
I'm gonna ask you once again
                                             C  D#  F  A#
You gotta tell me once again do you love me

Solo:  same chords as chorus

Repeat Chorus to end

-There it is!  I've gotten so many requests for this one,
 you can't imagine!  I haven't had much time lately, but
 I finally got around to doing this one.  Hope it was
 worth the wait!  As always, feel free to e-mail me with
 any questions, comments or suggestions!  Enjoy!
                 -Colleen Plein 


albums
tabs

 

1