Search tabs:
Browse artists: 0-9 | A | B | C | D | E | F | G | H | I | J | K | L | M | N | O | P | Q | R | S | T | U | V | W | X | Y | Z
/ / / guitar tab

Hanson
Runaway Run
Dawn Sanders
jagger_ravi@hotmail.com

Intro: C C F G X4
Verse1-2: C C F G X8
Prechorus: Am F Am F-G, Am F
Chorus: C F F G X2
Verse3: C C F G X4
Prechorus: Am F Am F-G, Am F
Chorus: C F F G X2, F G
Bridge: F C F G X2
Solo: F C F G X2, end on C
DRUM SOLO.
Chorus: C F F G, end on C

GUITAR SOLO
>=Slide up
<=Slide down
^=Bend Up

E-|------------------------------------------------------------
B-|-12-12-12-12-12-12-12>14---------------12-13-15-15-13-12-13-
G-|-------------------------11>12-13-14-15---------------------
D-|------------------------------------------------------------
A-|------------------------------------------------------------
E-|------------------------------------------------------------
                                  ^
E-|-----------------------------------------------------------
B-|-----------------------------------------------------------
G-|-14-14-12-12-14-14-12----------9-7-------------------------
D-|-----------------------7-10-7-----10-7---------------------
A-|---------------------10------10-------10-7-----------------
E-|------------------------------------------10-12-10-12-10<8-


albums
tabs

 

1