Search tabs:
Browse artists: 0-9 | A | B | C | D | E | F | G | H | I | J | K | L | M | N | O | P | Q | R | S | T | U | V | W | X | Y | Z
/ Hoobastank / The Reason (2003) / From the Heart guitar tab

From the Heart	
Hoobastank

intro/verse

e-------------------------------------------------
b-------------------------------------------------
g-------------------------------------------------
d-----4---4h6-----6---6h7-----7---7\\6-----2---2h4
a-------------------------------------------------
d-4-4---4-----4-4---4-----7-7---7-----2-2---2-----	x8
  . .   .     . .   .     . .   .     . .   .

chorus

e----------------------------------------------------------------
b----------------------------------------------------------------
g----------------------------------------------------------------
d-4-4-4-4-4-4-4-4-7-7-7-7-2-2-2-2-4-4-4-4-4-4-4-4-7-7-7-7-2-2-2-2-
a-4-4-4-4-4-4-4-4-7-7-7-7-2-2-2-2-4-4-4-4-4-4-4-4-7-7-7-7-2-2-2-2-
d-4-4-4-4-4-4-4-4-7-7-7-7-2-2-2-2-4-4-4-4-4-4-4-4-7-7-7-7-2-2-2-2-

e----------------------------------------------------------------
b----------------------------------------------------------------
g----------------------------------------------------------------
d-0-0-0-0-0-0-0-0-7-7-7-7-2-2-2-2-0-0-0-0-0-0-0-0-7-7-7-7-2-2-2-2
a-0-0-0-0-0-0-0-0-7-7-7-7-2-2-2-2-0-0-0-0-0-0-0-0-7-7-7-7-2-2-2-2
d-0-0-0-0-0-0-0-0-7-7-7-7-2-2-2-2-0-0-0-0-0-0-0-0-7-7-7-7-2-2-2-2

then:
intro/verse x8
chorus x1

bridge

e--------
b--------
g--------
d-7-0-2-2
a-7-0-2-2
d-7-0-2-2	x2

little riff

e------
b------
g-----9
d-6-7--
a------
d------	x a lot

then:
intro/verse x2
chorus x1
little riff x?

joe_bizkit_rulz@hotmail.com


Hoobastank albums
2003 The Reason
2001 Hoobastank
The Reason tabs
01Same Direction tabbass tab
02Out of Control tabbass tab
03What Happened to Us? tabbass tab
04Escape tabbass tab
05Just One tabbass tab
06Lucky tabbass tab
07From the Heart tabbass tab
08The Reason tabbass tab
09Let It Out tabbass tab
10Unaffected tabbass tab
11Never There tabbass tab
12Disappear tabbass tab

 

1