Search tabs:
Browse artists: 0-9 | A | B | C | D | E | F | G | H | I | J | K | L | M | N | O | P | Q | R | S | T | U | V | W | X | Y | Z
/ / / guitar tab

Intro
e| ------------
B| --0--0--0---
G| --9--4--6---
D| --9--4--6---
A| --7--2--4---
E| ------------

Little Riff After Intro
e| ---------------------------------------------------------------------------------
B| --------------------------------------------------------------------------------
G| --9--9--9\8--8\6--6\4--6h4--4(hold out)--9--9--9\8--8\9--9\11--11\13--11--9\11--9
D| ---------------------------------------------------------------------------------
A| ---------------------------------------------------------------------------------
E| ---------------------------------------------------------------------------------

Verse
e| --------------------------------------------------
B| --------------------------------------------------
G| --6-----2--4--6-----4--4--6-----2--4--6-----4--4--
D| --6--2--2--4--6--2--4--4--6--2--2--4--6--2--4--4--
A| --4--2--0--2--4--2--2--2--4--2--0--2--4--2--2--2--
E| -----0-----------0-----------0-----------0--------

Chorus
e| ----------------------
B| ----------------------
G| ----------------4--2--
D| ----------------4--2--
A| --0--2----------2--0--
E| --------4--0----------

Outro
e| ----------------------------------------------------------------
B| ----------------------------------------------------------------
G| --4-4-4-4-4--4-4-4-4-4--4-4-4-4--4-4-4-4-4--4-4-4-4-4--4-4-4-4--
D| --4-4-4-4-4--4-4-4-4-4--4-4-4-4--2-2-2-2-2--2-2-2-2-2--2-2-2-2--
A| --2-2-2-2-2--2-2-2-2-2--2-2-2-2--0-0-0-0-0--0-0-0-0-0--0-0-0-0--
E| ----------------------------------------------------------------


albums
tabs

 

1