Search tabs:
Browse artists: 0-9 | A | B | C | D | E | F | G | H | I | J | K | L | M | N | O | P | Q | R | S | T | U | V | W | X | Y | Z
/ Hot Water Music / Never Ender (2004) / Alachua guitar tab

Alachua
Hot Water Music
Tabbed by dantansy

part-a
|-----------------------|
|-----------------------|
|--9---9---6/6--7-------|
|--7---9---4/6--7-------|
|-----------------------|
|-----------------------|

part-b
|-----------------------------------------|
|--2--------------------------------------|
|--2----1----------7--6-7--6--7-----------|
|--2----2----4-----7--6-7--6--7-----------|
|-------2----4-----5--4-5--4--5-----------|
|------------2----------------------------|

part-c
|-------------------------------|
|--------2----------------------|
|--------2----2----4--6--7------|
|--4-----2----2----4--6--7------|
|--4----------1----2--4--5------|
|--2----------------------------|

part-d
|-------------------|
|-------------------|
|---------4-2-2-----|
|--4-4-4------------|
|-------------------|
|-------------------|

part-e
|-------------------------------|
|--5-5-------X6-----------------|
|-------4-2------7-7--6---------|
|----------------7-7--6-X3------|
|----------------5-5--4---------|
|-------------------------------|

part-f
|--------------------------------------------------------------------------|
|--------------------------------------------------------------------------|
|---------4--2--2--------4--2-2----2----4--2-2-----2----4--2--2------------|
|--4-4-4----------4-4-4---------4----4-----------4----4--------------------|
|--------------------------------------------------------------------------|
|--------------------------------------------------------------------------|


Order:
Part-a X1
Part-b X2
Part-c X2
Part-d X8
Part-e X6 (as indicated)
Part-b X2
Part-c X2
Part-f X2
Part-e X6 (as indicated)
Part-b X 4 All the way to the end. Except the d/#c isn't played until the last
time Just play d to keep it going. I suck at writing tabs. I know the chords
are right but I written them according to the strumming pattern because I
am lazy. Just listen to the CD and you'll be able to figure it out. I
promise. I apologize for the way I did this. I'm not retarded. I'm
just gifted in different ways.

~dantansy


Hot Water Music albums
2004 The New What Next
2004 Never Ender
2002 Caution
2001 A Flight and a Crash
1999 Moonpies for Misfits
1999 No Division
1998 Fuel for the Hate Game
1997 Forever and Counting
Never Ender tabs
01Alachua tabbass tab
07Elektra tabbass tab

 

1