Search tabs:
Browse artists: 0-9 | A | B | C | D | E | F | G | H | I | J | K | L | M | N | O | P | Q | R | S | T | U | V | W | X | Y | Z
/ Infectious Grooves / Sarsippius' Ark (1993) / The Immigrant Song guitar tab

Band: Infectious Grooves
Song: Immigrant Song
Album: Sarsippius' Ark
Tuning: Standard (High - EBGDAE - Low)
Tabbed By: Jordan Adshead (Jaytrixer)

Symbols used:

. Palm Mute
> Tremolo Pick
^ Pick the note upwards and firmly


Riff One - Distortion
e ---------------------------|
B ---------------------------|
G ---------------------------|
D ---------------------------|
A ---------------------------|
E 12-11-10-9-8-7-6-5-4-3-2-1-|
  >>>>>>>>>>>>>>>>>>>>>>>>>>


Riff Two - Wah
e -------|-6-xxx-6-x-6-xxx-6-x-6-xxx-6-x-6-|
B -------|-6-xxx-6-x-6-xxx-6-x-6-xxx-6-x-6-|
G -------|-6-xxx-6-x-6-xxx-6-x-6-xxx-6-x-6-|
D -----4-|-4-xxx-4-x-4-xxx-4-x-4-xxx-4-x-4-|
A -------|---------------------------------|
E 2------|---------------------------------|
  ^    ^


Riff Three - Distortion
e -------|---------------|------|---|
B -------|---------------|------|---|
G -------|---------------|-5----|---|
D -----4-|-----------4---|-5--4-|-4-|
A -------|---------------|-3--4-|-4-|
E 2-22---|-2--22-22----2-|----2-|-2-|
  . ..     .  .. ..    .


Riff Four - Distortion
e --|---|---|
B --|---|---|
G 5-|-6-|-8-|
D 5-|-6-|-8-|
A 3-|-4-|-6-|
E --|---|---|
  >   >   >


Riff Five - Distortion
e ------------------|
B ------------------|
G ----------------5-|
D -----4----------5-|
A ----------------3-|
E 2-22---2-22-22----|
  . ..   .. ..



Song Order

Intro: Riff One - Riff Two & Riff Three
Verse & Bridge: Riff Two & Riff Three
Chorus: Riff Four
Verse & Bridge: Riff Two & Riff Three
Chorus: Riff Four
Bridge: Riff Two & Riff Three
Outro - Riff Five & Riff Two



Simple, I can't imagine it being 100% correct but it sounds about right to me anyflip!
If you have any comments feel free to e-mail them me at Eyeless_Prophet@hotmail.com.
Thanks.

- Jordan Adshead (Jaytrixer)


Infectious Grooves albums
2000 Mas Borracho
1994 Groove Family Cyco
1993 Sarsippius' Ark
1991 The Plague That Makes Your Booty Move
Sarsippius' Ark tabs
04The Immigrant Song tabbass tab
06Don't Stop Spread the Jam tabbass tab
07Three Headed Mind Pollution tabbass tab
11These Freaks Are Here to Party tabbass tab
20Spreck tabbass tab

 

1