Search tabs:
Browse artists: 0-9 | A | B | C | D | E | F | G | H | I | J | K | L | M | N | O | P | Q | R | S | T | U | V | W | X | Y | Z
/ Jimmy Buffett / Changes in Latitudes, Changes in Attitudes (1977) / Margaritaville guitar tab

Margaretville
Jimmy Buffett
Songs you know by heart


I was surprised noone has tabbed this incrediblye awesome and fun song so here it is

intro
e----5--5--5--3--5-------5--5--5--3--5----------7--7--7--7--5--3--2----------
b----7--7--7--5--7-------7--7--7--5--7----------8--8--8--8--7--5--3----------
g-------------------------------------------------------------------------------------
d-------------------------------------------------------------------------------------
a-------------------------------------------------------------------------------------
E------------------------------------------------------------------------------------


D
nibblin on sponge cake, Watchin the sun bake
                               A
all those tourists covered in oil
A
strummin my six string, on my front porch swing
A7                                      D
watch those shrimp there beggining to boil

Chorus:
G        A                  D
Wastin' Away again in Margaritaville
G             A               D
Lookin for my lost shaker of salt
G            A              D  A      G
Some people claim theres a wo-man to blame
A7        
but I know

		e-----7--7--7--5--3-
		b-----8--8--8--7--5-

                D
It could be my fault


		e----5--5--5--3--2--
                b----7--7--7--5--3-


Verse 2
Chorus
Verse 3
Chorus x2
Outro
 Repeat intro riff

 peace out -jim


Jimmy Buffett albums
2004 License to Chill
2002 Far Side of the World
1996 Banana Wind
1995 Barometer Soup
1994 Fruitcakes
1986 Floridays
1985 Last Mango in Paris
1984 Riddles in the Sand
1983 One Particular Harbour
1981 Coconut Telegraph
1979 Volcano
1978 Son of a Son of a Sailor
1977 Changes in Latitudes, Changes in Attitudes
1976 Havana Daydreamin'
1976 High Cumberland Jubilee
1974 A-1-A
1974 Living and Dying in 3/4 Time
1973 A White Sport Coat and a Pink Crustacean
1970 Down to Earth
Changes in Latitudes, Changes in Attitudes tabs
02Wonder Why We Ever Go Home tabbass tab
03Banana Republics tabbass tab
04Tampico Trauma tabbass tab
05Lovely Cruise tabbass tab
06Margaritaville tabbass tab
07In the Shelter tabbass tab
08Miss You So Badly tabbass tab
09Biloxi tabbass tab
10Landfall tabbass tab

 

1