Search tabs:
Browse artists: 0-9 | A | B | C | D | E | F | G | H | I | J | K | L | M | N | O | P | Q | R | S | T | U | V | W | X | Y | Z
/ Joe Satriani / Crystal Planet (1998) / Time guitar tab

Time
                                          by
                                     Joe Satriani


Tabber: Eren Matthews


Intro(or rhythm): Distortion
E--------------------------------------------------
B--------------------------------------------------
G--------------------------------------------------
D--------------------------------------------------
A--------------------------------------------------
E--7---8------5---7------------7---8------5---7----

Intro 2: Clean
E------------------------------------------------
B--8---7---------7---5---------------------------
G---------9--7-----------4----4(5)(4)--(5)(4)----
D------------------------------------------------
A------------------------------------------------
E------------------------------------------------

Main Theme: Wah & Distortion
E----------------------------------------------------------
B--8(10)------8---7h8p7\\5---5/7---7/12\\7--7---7/12\\7--7----
G----------------------------------------------------------
D----------------------------------------------------------
A----------------------------------------------------------
E----------------------------------------------------------

E---------------------------------------------------------------------------------------
B--7--8--10--10--8--7--8--8--7-----7--7-------------------------------------------------
G-------------------------------9--------9--7--9--9----7--------------------------------
D--------------------------------------------------------10-9---7--9---9/10--9----9\\----
A---------------------------------------------------------------------------------------
E---------------------------------------------------------------------------------------

E----------------------------------------------------------
B--8(10)------8---7h8p7\\5---5/7---7/12\\7--7---7/12\\7--7----
G----------------------------------------------------------
D----------------------------------------------------------
A----------------------------------------------------------
E----------------------------------------------------------

E-------------------------------------------------7------------------------------------
B--7--8--10--10--8--7--8--8--7-----7--7------------------------------------------------
G-------------------------------9--------9--7--9-----9--7------------------------------
D----------------------------------------------------------9---7--9---9/10--9----9\\----
A--------------------------------------------------------------------------------------
E--------------------------------------------------------------------------------------

E-----------------------------------------------------------------------10-12-14--15--12----
B------------------------------------7-8-10-12--13--10----10\\3/12----12---------------------
G------------------7--9--7----7/9-----------------------------------------------------------
D--7----7/9--10-----------------------------------------------------------------------------
A-------------------------------------------------------------------------------------------
E-------------------------------------------------------------------------------------------

E--11(12)------11----11-10-9-8---12\\5-----5-4-5---5-4-5-9--10--------
B--------------------------------------------------------------------
G--------------------------------------------------------------11----
D--------------------------------------------------------------------
A--------------------------------------------------------------------
E--------------------------------------------------------------------

E------10------12--14--15--15(17)--------18----18--16-14---------19----19--17-15-------
B--12----------------------------------------------------16----------------------17----
G--------------------------------------------------------------------------------------
D--------------------------------------------------------------------------------------
A--------------------------------------------------------------------------------------
E--------------------------------------------------------------------------------------

E--20(22)--------20(23)----
B--------------------------
G--------------------------
D--------------------------
A--------------------------
E--------------------------

E--------------------------------------------------
B--------------------------------------------------
G--------------------------------------------------
D--------------------------------------------------
A--------------------------------------------------
E--7---8------5---7------------7---8------5---7----

E------------------------------------------------
B--8---7---------7---5---------------------------
G---------9--7-----------4----4(5)(4)--(5)(4)----
D------------------------------------------------
A------------------------------------------------
E------------------------------------------------


Solo:
E------------------------------------------------------------------------------
B------------------------------------------------------------------------------
G--4-4---5-5---2-2---4-4---5-5---2-2---4-4-2---2-2-0---------------------------
D------------------------------------------------------2-2-0-------------------
A--------------------------------------------------------------2-2-0-0-2-------
E-------------------------------------------------------------------------0----
               ^all these notes are artifficial harmonics
E-----------------------------------------------------------------10-10-7--10-7-12-12-7---7--7-
B------------5--5-3--8--8-7--7-10-7--10-10-7--10-10-7--10-10-7---------------------------------
G--4--5-5-4------------------------------------------------------------------------------------
D----------------------------------------------------------------------------------------------
A----------------------------------------------------------------------------------------------
E----------------------------------------------------------------------------------------------
               ^all these notes are artifficial harmonics
E--17171717171717171717171717171717--------(trill)----
B-----------------------------------------------------
G-----------------------------------------------------
D-----------------------------------------------------   
A-----------------------------------------------------
E-----------------------------------------------------

then extremely fast soloes that i couldnt tab


E-----------------------------------------------------------------------10-12-14--15--12----
B------------------------------------7-8-10-12--13--10----10\\3/12----12---------------------
G------------------7--9--7----7/9-----------------------------------------------------------
D--7----7/9--10-----------------------------------------------------------------------------
A-------------------------------------------------------------------------------------------
E-------------------------------------------------------------------------------------------

E--11(12)------11----11-10-9-8---12\\5-----5-4-5---5-4-5-9--10--------
B--------------------------------------------------------------------
G--------------------------------------------------------------11----
D--------------------------------------------------------------------
A--------------------------------------------------------------------
E--------------------------------------------------------------------

E------10------12--14--15--15(17)--------18----18--16-14---------19----19--17-15-------
B--12----------------------------------------------------16----------------------17----
G--------------------------------------------------------------------------------------
D--------------------------------------------------------------------------------------
A--------------------------------------------------------------------------------------
E--------------------------------------------------------------------------------------

E--20(22)--------20(23)----
B--------------------------
G--------------------------
D--------------------------
A--------------------------
E--------------------------

E--------------------------------------------------------------------------------------
B-----------12----------------12----------------12----------------10-------------------
G-----12----------12----12----------12----12----------12----11----------11----11-------
D--10----10----10----10----10----10----10----10----10----10----10----12----12----12----
A--------------------------------------------------------------------------------------
E--------------------------------------------------------------------------------------

E--------------------------------------------------------------------------------------
B-----------12----------------12----------------12----------------10-------------------
G-----12----------12----12----------12----12----------12----11----------11----11-------
D--10----10----10----10----10----10----10----10----10----10----10----12----12----12----
A--------------------------------------------------------------------------------------
E--------------------------------------------------------------------------------------

  Outro Solo:  wah & distortion
E------------------------------------------------
B------------------------------------------------
G--0~~~~~~~~~~-----------<7>~~~~~~~~~~~~---------
D------------------------------------------------
A------------------------------------------------
E------------------------------------------------

E------------------------------------------------------------------------------------
B------------------------------------------------------------------------------------
G------------------------------------------------------------------------------------
D------------------------------------------------------------------------------------
A--10-9-7-5----5-5-7----10-9-7-5----5-5-7----10-9-7-5----5-5-7----7-9----9-10--------
E------------7--------------------7--------------------7-----------------------------

E----------------------------------------------------------------------
B----------------------------------------------------------------------
G----------------------------------------------------------------------
D----------------------------------------------------------------------
A--10-12-12-0-12-14-14-14-14-12-12--12-14-14-14-14----14----14\\--------
E----------------------------------------------------------------------

E------------------------------------------------------------------------------------------
B---------------7--------7--------------7-8---8-8-8h10-10---10-12-12--12-12-12-12-12-12----
G--7-9-9-9-9------7-9------7--------7-9----------------------------------------------------
D-------------------------------9----------------------------------------------------------
A------------------------------------------------------------------------------------------
E------------------------------------------------------------------------------------------

E---------------------------------------------------------------------------------------------
B--12--12-12-12-12-12----12--12-12-12-12----12--12-12-12-12-12----12--12-12-12-12-12-12-12----
G------ah-ah-ah-ah-ah--------ah-ah-ah-ah--------ah-ah-ah-ah-ah--------ah-ah-ah-ah-ah-ah-ah----
D---------------------------------------------------------------------------------------------
A-------------------------------------(ah: artificcial harmonic)------------------------------
E---------------------------------------------------------------------------------------------

E-------------------------------------------------------------
B-------------------------------------------------------------
G--<5>---------7-9-9-11-11--12-12-12-12-14-14-14-14-12--------
D--------------x-x-x--x--x---x--x--x--x--x--x--x--x--x--------
A---------5----5-7-7--9--9--10-10-10-10-12-12-12-12-10--------
E-----------7-------------------------------------------------

E--10-10-10-12-12-12-x-17-17-17-17-19-19-19-19-12-12-0-0-14-14-14-14-15-12--------
B---------------------------------------------------------------------------------
G---------------------------------------------------------------------------------
D---------------------------------------------------------------------------------
A---------------------------------------------------------------------------------
E---------------------------------------------------------------------------------

E-]------19-----]----------17-----]---12---------]--------10----]---12---------]----------]
B-]-------------]----17-----------]--------12----]---10---------]--------12----]----15----]
G-]-0-16--------]-------14----14--]-9------------]------7----7--]-9------------]----------]
D-]---------16--]-14--------------]------9----9--]-7------------]------9----9--]-12-------]
A-]-------------]-----------------]--------------]--------------]--------------]----------]
E-]-------------]-----------------]--------------]--------------]--------------]----------]

E--15-------14----------------------------------------------------------
B-----------------15----------------------------------------------------
G-----12-11---------------------12-12-12--11-11-11--9-9-9--7-7-7--------
D--------------12-------------------------------------------------------
A---------------------12--------10-10-10---9--9--9--7-7-7--5-5-5--------
E-----------------------------------------------------------------------

E----------------------------------------------------------
B----------------------------------------------------------
G-------------------------0~~~~~~~~~~~~~~~~~~~~------------
D----------------------------------------------------------
A--10-9-7-5----5-5-7---------------------------------------
E------------7---------------------------------------------


Joe Satriani albums
2004 Is There Love in Space?
2002 Strange Beautiful Music
2000 Engines of Creation
1998 Crystal Planet
1995 Joe Satriani
1993 Time Machine
1992 The Extremist
1989 Flying in a Blue Dream
1987 Surfing With the Alien
1986 Not of This Earth
Crystal Planet tabs
01Up in the Sky tabbass tab
02House Full of Bullets tabbass tab
03Crystal Planet tabbass tab
04Love Thing tabbass tab
06Lights of Heaven tabbass tab
07Raspberry Jam Delta-V tabbass tab
08Ceremony tabbass tab
10Secret Prayer tabbass tab
11A Train of Angels tabbass tab
12A Piece of Liquid tabbass tab
14Time tabbass tab
15Z.Z.'s Song tabbass tab

 

1