Search tabs:
Browse artists: 0-9 | A | B | C | D | E | F | G | H | I | J | K | L | M | N | O | P | Q | R | S | T | U | V | W | X | Y | Z
/ / / guitar tab

BORG SEX
As recorded by Joe Satriani
Album Engines Of Creation
Music by Joe Satriani

Gtr I (E A D G B E) - 'Joe Satriani'
Gtr II (E A D G B E) - 'Joe Satriani'
Gtr III (E A D G B E) - 'Joe Satriani'
Gtr IV (E A D G B E) - 'Joe Satriani'
Gtr V (E A D G B E) - 'Joe Satriani'

Listen to the song when to turn distortion up, down and also off

 Intro
  Moderately Q=120
              G5E5       G5E5       G5E5
 4/4
  Gtr I
  H    H      W          W          W
|-----------|----------|----------|----------|
|-----------|----------|----------|----------|
|-----------|----------|----------|----------|
|-----------|----------|----------|----------|
|-----------|----------|----------|----------|
|-----------|----------|----------|----------|

w/ Whammy Pedal
                               G5       E5
  Q  E  S  S  E E  S  S  E   E  S  S  E E S  S  S  S  S  S  S  S
|--------------------------|---------------------------------------|
|--------------------------|----------------------------15-18-15---|
|--------------------------|---------12--------------15------------|
|-----------------------12-|---12-14-----------12------------------|
|------------10---12-14----|----------------13----13---------------|
|------10-12---------------|---------------------------------------|


                          G5E5
                                                     ~~
   E E E.  S  e  e  e E   H    Q  E  S  S    Q   Q   Q  Q
|-18------19-15---------|-----------------|----------------|
|---------------15------|-----------------|----------------|
|------------------16---|-----------11----|----------------|
|-----------------------|--------------11-|-14--12--14-----|
|-----------------------|-----------------|----------------|
|-----------------------|-----------------|----------------|


  G5E5
  H    E  T  T  S  +E.  T  T    H.      S  S E
|--------10h12h14-(14)p12p10h|=12---------12----|
|----------------------------|------------------|
|----------------------------|------------------|
|----------------------------|------------------|
|----------------------------|------------------|
|----------------------------|------------------|


  G5          E5
                             |-3--|
   S E.  T  T  E  T  T E  Q  T  T T S
|-10----10h12h14p12p10s9-10--9h10p9s7-|
|-------------------------------------|
|-------------------------------------|
|-------------------------------------|
|-------------------------------------|
|-------------------------------------|


                  G5           E5
                                           ~~
                    |--3--|      |--3---|
  +E  E Q  H      E S  S  S  E  +S   S  S  H
|-(7)s6---------|-----10h12h14-(14)p12p10h12----|
|---------------|-------------------------------|
|---------------|-------------------------------|
|---------------|-------------------------------|

|---------------|-------------------------------|
|---------------|-------------------------------|


                        G5        E5
    ~~~~
   +Q   Q  Q  E  S  S    E.  S  S  S  E  +E   E     +E      +E
|-(12)----------17----|-17--------------------------------------|
|------------------17-|-----17-17----17-(17)-19b20r(19)b20r(19)-|
|---------------------|-----------19----------------------------|
|---------------------|-----------------------------------------|
|---------------------|-----------------------------------------|
|---------------------|-----------------------------------------|


                              G5  E5
               ~~~~~~~~
   |--3--|
   S  S  S  E  Q   +E  E Q    Q.  E +E  E Q
|---------------------------|----------------|
|-17h19p17S15-17--(17)------|----------------|
|---------------------------|-3h==4-(4)s6h7--|
|---------------------------|----------------|
|---------------------------|----------------|
|---------------------------|----------------|


                                                 ~~~
                                                          |-3-|
  E S S Q  E E S E.   E E Q  +S  S T T S +Q     +Q   Q  E S S S E E
|-------------------|-------------------------|----------------------|
|-------------------|-------------------------|----------------------|
|-6-4s3------3s4----|-------------------------|----------------------|
|-------------------|-5s8-9--(9)-8-9p8s5-(5)--|-(5)------------------|
|----------------7--|-------------------------|-----------7h8p7s5s7--|
|-------------------|-------------------------|----------------------|


  G5       E5
            ~~~~~~~
  S E. +E   E  +H       H    Q  E T  T T T
|---------------------|--------------------|
|---------------------|--------------------|
|---------------------|--------------------|
|---------------------|--------------------|
|-7-8--(8)s12-(12)----|-----------8h11p8s7-|
|---------------------|--------------------|


  G5           E5
                ~~~           ~~
  +Q   +S  S E +Q   +E   E    H    H
|--------------------------|------------||
|--------------------------|------------||
|-----------------------16-|-16---------||
|--------------------------|------------||
|-(7)--(7)s5s7-(7)--(7)----|------------||
|--------------------------|------------||


 Pre-Verse
  $
  G5         E5                       G5         E5
  Gtr II
  S S S S Q  H      S S S S Q  H      S S S S Q  H      S S S S Q  Q  E S S
|-----------------|-----------------|-----------------|---------------------|
|-----------------|-----------------|-----------------|---------------------|
|-----------------|-----------------|-----------------|---------------------|
|-------5---------|-----------------|-------7---------|---------------------|
|-5p4h5-----------|-------7---------|-5p4h5-----------|-------7---------5p4-|
|-----------------|-5p3h5-----------|-----------------|-5p3h5---------------|


  G5         E5                       G5         E5
  S S S S Q  H      S S S S Q  H      S S S S Q  H      S S S S Q  H
|-----------------|-----------------|-----------------|-----------------||
|-----------------|-----------------|-----------------|-----------------||
|-------6---------|-----------------|-----------------|-----------------||
|-----5-----------|-----------------|-------5---------|-----------------||
|-5p4-------------|-------7---------|-5p4h5-----------|-------7---------||
|-----------------|-5p3h5-----------|-----------------|-5p3h5-----------||


   Verse
    G5 E5
    H         Q    E.   +S    W         3x
||--------------------------|-----------||
||o----------------8b9==(8)-|----------o||
||--------------------------|-----------||
||--------------------------|-----------||
||o-------------------------|----------o||
||--------------------------|-----------||
|
|   Gtr III
|        \1/
|   ~~~~~~~~~~~~~PM
|   Q.   E   +E  E Q          W         3x
||--------------------------|-----------||
||o-------------------------|----------o||
||--------------------------|-----------||
||--------------------------|-----------||
||o------2---(2)------------|----------o||
||--3----0---(0)-0----------|-----------||
      Flutter Bar

  G5   E5
  H         Q    E.   +S    W
|-------------------------|---------------------|
|----------------8b9==(8)-|---------------------|
|-------------------------|---------------------|
|-------------------------|---------------------|
|-------------------------|---------------------|
|-------------------------|---------------------|
|
|      \1/                       \1/
| ~~~~~~~~~~~~~PM                ~~~~~~~~  PM|
| Q.   E   +E  E Q          Q  E E   +E  E E E
|-------------------------|---------------------|
|-------------------------|---------------------|
|-------------------------|---------------------|
|-------------------------|---------------------|
|------2---(2)------------|-2----2---(2)-2------|
|-3----0---(0)-0----------|-0--0-0---(0)-0-0-0--|


 Chorus
  G5                E5
   S  S  S  S Q      H           S  S  S  S Q      H
|-----------------------------|-----------------------------|
|-----------------------------|-----------------------------|
|----------12-----------------|-----------------------------|
|-12p11h12--------------------|----------14-----------------|
|-----------------------------|-12p10h12--------------------|
|-----------------------------|-----------------------------|
|
|               \1/                           \1/
|  PM---------| ~~~~~~~~  PM|                 ~~~~~~~~  PM---
|  Q          E E   +E  E E E    Q          E E   +E  E E E
|-----------------------------|-----------------------------|
|-----------------------------|-----------------------------|
|-----------------------------|-----------------------------|
|-----------------------------|-----------------------------|
|---------------2---(2)-2-----|---------------2---(2)-2-----|
|--3----------0-0---(0)-0-0-0-|-------------0-0---(0)-0-0-0-|


  G5                E5
   S  S  S  S Q      H           S  S  S  S Q      Q    E  S  S
|-----------------------------|---------------------------------|
|-----------------------------|---------------------------------|
|----------14-----------------|---------------------------------|
|-12p11h12--------------------|----------14---------------12p11-|
|-----------------------------|-12p10h12------------------------|
|-----------------------------|---------------------------------|
|
|               \1/                           \1/
|-------------| ~~~~~~~~  PM|                 ~~~~~~~~  PM|
|  Q          E E   +E  E E E    Q          E E   +E  E E  E
|-----------------------------|---------------------------------|
|-----------------------------|---------------------------------|
|-----------------------------|---------------------------------|
|-----------------------------|---------------------------------|
|---------------2---(2)-2-----|---------------2---(2)-2---------|
|--3----------0-0---(0)-0-0-0-|-------------0-0---(0)-0-0--0----|


  G5                E5
   S  S  S  S Q      H           S  S  S  S Q      H
|-----------------------------|-----------------------------|
|----------14-----------------|-----------------------------|
|-------12--------------------|-----------------------------|
|-12p11-----------------------|----------14-----------------|
|-----------------------------|-12p10h12--------------------|
|-----------------------------|-----------------------------|
|
|               \1/                           \1/
|  PM---------| ~~~~~~~~  PM|                 ~~~~~~~~  PM---
|  Q          E E   +E  E E E    Q          E E   +E  E E E
|-----------------------------|-----------------------------|
|-----------------------------|-----------------------------|
|-----------------------------|-----------------------------|
|-----------------------------|-----------------------------|
|---------------2---(2)-2-----|---------------2---(2)-2-----|
|--3----------0-0---(0)-0-0-0-|-------------0-0---(0)-0-0-0-|


                       To Coda
  G5                E5
   S  S  S  S Q      H           S  S  S  S Q      H
|-----------------------------|------------------------------|
|-----------------------------|------------------------------|
|----------12-----------------|------------------------------|
|-12p11h12--------------------|----------14------------------|
|-----------------------------|-12p10h12---------------------|
|-----------------------------|------------------------------|
|
|               \1/                           \1/
|-------------| ~~~~~~~~  PM|                 ~~~~~~~~  PM|
|  Q          E E   +E  E E E    Q          E E   +E  E E.S
|-----------------------------|------------------------------|
|-----------------------------|------------------------------|
|-----------------------------|------------------------------|
|-----------------------------|------------------------------|
|---------------2---(2)-2-----|---------------2---(2)--------|
|--3----------0-0---(0)-0-0-0-|-------------0-0---(0)-0-7s0--|


   Verse
    G5 E5
    H         Q     E.     +S    W                   3x
||-----------------15b16==(15)-|---------------------||
||o----------------------------|--------------------o||
||-----------------------------|---------------------||
||-----------------------------|---------------------||
||o----------------------------|--------------------o||
||-----------------------------|---------------------||
|
|        \1/                          \1/
|   ~~~~~~~~~~~~~PM                 PM~~~~~~~~  PM|
|   Q.   E   +E  E  Q            Q  E E   +E  E E E  3x
||-----------------------------|---------------------||
||o----------------------------|--------------------o||
||-----------------------------|---------------------||
||-----------------------------|---------------------||
||o------2---(2)---------------|-2----2---(2)-2-----o||
||--3----0---(0)-0-------------|-0--0-0---(0)-0-0-0--||


  G5 E5
  H         Q     E.     +S    Q     E.     +S  Q     E.     +S
|----------------15b16==(15)-|------15b16==(15)------15b16==(15)--|
|----------------------------|-------8b9====(8)-------8b9====(8)--|
|----------------------------|------------------------------------|
|----------------------------|------------------------------------|
|----------------------------|------------------------------------|
|----------------------------|------------------------------------|
|
|      \1/                     \1/              \1/
| ~~~~~~~~~~~~~PM              ~~~              ~~~
| Q.   E   +E  E  Q            Q     Q          Q     Q
|----------------------------|------------------------------------|
|----------------------------|------------------------------------|
|----------------------------|------------------------------------|
|----------------------------|------------------------------------|
|------2---(2)---------------|-2----------------2-----------------|
|-3----0---(0)-0-------------|-0----------------0-----------------|


 Interlude
  E5       C#5
  Gtr IV
  S  S E E  E  E   E E  E   E  E E  E  E  E E S S
|-------------------------|-----------------------|
|-------------------------|-----------------------|
|------9------------------|--------12----11---9p6-|
|----------11-----11---11-|-----------------------|
|----7---7----------------|---11------11----7-----|
|-7------------9-----9----|-9----9----------------|
|
| Gtr II
| Q.        E +E   E E  E   E  E E  E  E  E E E
|-------------------------|-----------------------|
|-------------------------|-----------------------|
|-------------------------|-----------------------|
|-------------------------|-----------------------|
|-----------4-(4)--4-4--4-|-4--4-4--4--4--4-4-4---|
|-0-----------------------|-----------------------|


  E5       C#5
  S  S E E  E  E   E E  E   E  E  E  E E  E  E  E
|-------------------------|-----------------------|
|-------------------------|--------------11-------|
|------9------------------|---12----13---------12-|
|----------11-----11---11-|------------9----------|
|----7---7----------------|------10---------11----|
|-7------------9-----9----|-9---------------------|
|
| Q.        E +E   E E  E   E  E  E  E E  E  E  E
|-------------------------|-----------------------|
|-------------------------|-----------------------|
|-------------------------|-----------------------|
|-------------------------|-----------------------|
|-----------4-(4)--4-4--4-|-4--4--4--4-4--4--4--4-|
|-0-----------------------|-----------------------|


  A5       C#5
  S  S E E  E  E   E E  E   E  E  E  E  E  E  E  E
|-------------------------|------------------------|
|-------------------------|---14----13-------------|
|------9------------------|---------------12----13-|
|----------11-----11---11-|------11----10----------|
|----7---7----------------|------------------10----|
|-7------------9-----9----|-9----------------------|
|
| Q.        E +E   E E  E   E  E  E  E  E  E  E  E
|-------------------------|------------------------|
|-------------------------|------------------------|
|-------------------------|------------------------|
|-------------------------|------------------------|
|-----------4-(4)--4-4--4-|-4--4--4--4--4--4--4--4-|
|-0-----------------------|------------------------|


  F#5   C#5      B#5  B5      A#5 A5    G#5
  S S E E  E  E   E E E    E  E E E  E  E  Q
|-----------------------|----------------------|
|-----------------------|----------------------|
|-----9-----------------|----------------------|
|---------11-----10---9-|-----8---7-----6/-----|
|-------7---------------|----------------------|
|-7h9---------9-----8---|--7----6----5---------|
|
| Q.       E +E   Q   E   +E  Q   E +E  E  Q
|-----------------------|----------------------|
|-----------------------|----------------------|
|-----------------------|----------------------|
|-----------------------|----------------------|
|----------4-(4)--3---2-|-(2)-1---0-(0)--------|
|-2---------------------|---------------4------|


    Em                     C
    Gtr II
    Q    +E  E +E  E E E   Q  E E E E E E
||-----------------------|----------------|
||o----------------------|----------------|
||-----------------------|----------------|
||--5b6--(5)-------------|----------------|
||o----------7-(7)-7---7-|-7----7---7---7-|
||--0----(0)-------------|-8--------------|


                       1.
  E/Bb                E/G#
  Q    +E  E E E E E   Q  E E E E E E
|--------------------|------------------||
|--------------------|-----------------o||
|--------------------|------------------||
|-5b6--(5)-----------|------------------||
|----------7---7---7-|-7----7---7---7--o||
|-6----(6)-----------|-4----------------||


  2.
  E/G#
  Q  Q  H
|------------||
|------------||
|------------||
|------------||
|-7----------||
|-4----------||


 Guitar Solo
  A5            F#5
  Gtr V
       |-3--|
    Q  S S  Q    +Q.   T T  S
|------6s7-10---(10)---7s6-10-|
|-----------------------------|
|-----------------------------|
|-----------------------------|
|-----------------------------|
|-----------------------------|
|
| Gtr III
|   Q.        E  +H
|-----------------------------|
|-/10s========7--(7)----------|
|-----------------------------|
|-----------------------------|
|-----------------------------|
|--/5s========2--(2)----------|


   +T  T S  E  +T  T S  E T T  E. T T  T T T  T T T
|-(10)-7s6-10-(10)-7s6-10-7s6-10--7s6-10-6s7-10-7s6-|
|---------------------------------------------------|
|---------------------------------------------------|
|---------------------------------------------------|
|---------------------------------------------------|
|---------------------------------------------------|
|
|  +H.                            Q
|---------------------------------------------------|
|--(7)----------------------------------------------|
|---------------------------------------------------|
|---------------------------------------------------|
|---------------------------------------------------|
|--(2)----------------------------------------------|


  |---6----|
  E S  S S S S T  T S S S S T  T S S S T  T T T
|---7h10p7s6---6h10-6-7-6-6-7h10p7-6-6-7h10p7s6-|
|-----------------------------------------------|
|-----------------------------------------------|
|-----------------------------------------------|
|-----------------------------------------------|
|-----------------------------------------------|


   |-----6-----|  |-3--|
   S S  S S S  S  S S  S T T  S T  T  T T T  T T T +T   T T  T T T  S
|-10p6h10p7s6h10-14p7h10p6s7h10-6h10-10p6s7h10p7s6-(6)-10p6h10p7s6----|
|------------------------------------------------------------------10-|
|---------------------------------------------------------------------|
|---------------------------------------------------------------------|
|---------------------------------------------------------------------|
|---------------------------------------------------------------------|


  A5                     F#5
           |-3--|
  T T  T T S  S S S  T T T T T T T T T  T T T  S T T  T T S T T
|-6s7h10p7s6--------------------------------------------6-7-7s6--|
|------------10p7---10p8p7---7-----7h8h10p8p7-10-7h8h10----------|
|-----------------7--------9---7-9-------------------------------|
|----------------------------------------------------------------|
|----------------------------------------------------------------|
|----------------------------------------------------------------|


                                                       |-3-|
   S T T S T T T T S T T T T T T T T  T T T X X S T T  S S S
|----------6h7h9p7p6-9p6-6s7h9p7-7h8h10p8p6-6h7h9p7p6----------|
|-10-7h8----------------------------------------------10-7h8h==|
|--------9-----------------------------------------------------|
|--------------------------------------------------------------|
|--------------------------------------------------------------|
|--------------------------------------------------------------|


  A5                   F#5
   |-3-|                       |----6----|  |-----6-----|
   S S S T T T T T T S T T T T E  S S  S S  S S  S S  S S
|---------------------------------------------------------|
|-10p8p7---------------5h6h8p6p5--------------------------|
|--------9p7p6s4-4h5h7------------------------------------|
|--------------------------------12p0------14p0-14p0-14p0-|
|--------------------------------12p0-12p0-14p0-14p0-14p0-|
|-------------------------------------12p0----------------|


                 ~~~~~~
                    |---6----|
  T T S  E T T S E +S  S S E S S S S S
|--------------------------------------|
|--------------------------------------|
|-2p0------------------0-2-3-6s5-------|
|-----2s10s2p0---2-(2)-----------0-----|
|--------------2-----------------------|
|----------------------------------0-0-|


  A5                   F#5
   S  S  S  S  S  S  S  S  S  S  S  S  S     +S   S  S
|------------------------------------------------------|
|------------------------------------------------------|
|-------------------------------14----14b16r(14)-12----|
|----------------------12-14-12----12---------------14-|
|----------11-14-12-14---------------------------------|
|-13-11-13---------------------------------------------|


            ~~~~~~~         ~~~~~~~
   S  S  S  S  +E   E  +S   E.  E.  +S
|----------------------------------------|
|----------------------------------------|
|-12-14-12-14-(14)-14-(14)-14--14--(14)/-|
|----------------------------------------|
|----------------------------------------|
|----------------------------------------|


  A5             F#5
                                        ~~~~~~~~~~~~~~~
  S E.  H         +E.  +S     +E.   S   E.  S  +S   E. E E
|------19b22=====(19)-(19)-|-(19)r-----18--18-(18)-18------|
|--------------------------|---------------------------0-0-|
|---0----------------------|-------(0)-----------------0---|
|--------------------------|-------------------------------|
|--------------------------|-------------------------------|
|--------------------------|-------------------------------|


  A5       F#5
            ~~~~~~~~~~~~              ~~~~~
   Q.       E      +H         Q.      E     +E. S E  E
|-18-------18-----(18)r----|-17------17---------0-3s10-|
|-21b23====21pb23-(21)-----|-20b22---20b22-(20)--------|
|--------------------------|---------------------------|
|--------------------------|---------------------------|
|--------------------------|---------------------------|
|--------------------------|---------------------------|


  A5                         F#5
   PM------------------------------------------------------|
   |------6-------|  |------6-------|        |------6-------|
   S  S  S  S  S  S  S  S  S  S  S  S  E  E  S  S  S  S  S  S
|-------------------------------------------------------------|
|-------------------------------------------------------------|
|----------------------------------------12-14-14-14-16-16-16-|
|----------------------------12-12-12-14----------------------|
|-10-10-10-12-12-12-14-14-14----------------------------------|
|-------------------------------------------------------------|


   |------6-------|  |------6-------|  |------6-------|
   S  S  S  S  S  S  S  S  S  S  S  S  S  S  S  S  S  S  Q
|-------------------15-15-15-17-17-17-19-19-19-22-22-22-22b24===|
|-15-15-15-17-17-17---------------------------------------------|
|---------------------------------------------------------------|
|---------------------------------------------------------------|
|---------------------------------------------------------------|
|---------------------------------------------------------------|


  F5             D5
    ~~~~
   +H                 +E     +Q.              W
|-(22)---------------(22)---(22)\-----------|---------------------------------|
|-------------------------------------------|---------------------------------|
|-------------------------------------------|---------------------------------|
|-------------------------------------------|---------------------------------|
|-------------------------------------------|---------------------------------|
|-------------------------------------------|---------------------------------|
|
| Gtr III
|   <
|   S  S S S S S S S   S  S   S   S S S S S   S S S S S S S S S S S S S S S S
|-------------------------------------------|---------------------------------|
|-------------------------------------------|---------------------------------|
|-------------------------------------------|---------------------------------|
|-------------------------------------------|---------------------------------|
|-------------------------------------------|---------------------------------|
|---3--3-3-3-3-3-0-0---0--0---0---0-0-0-0-0-|-0-0-0-0-0-0-0-0-0-0-0-0-0-0-0-0-|


 Duel
  G5E5                           G5    E5
  Gtr I
           ~~~~~~~~~~             ~~
  H    Q   Q     +Q.    e H       H     e E Q    H    S  S  S  S  S  S  S  S
|-------------|----------------|---------------|--------------------------17-|
|-------------|----------------|-16----17------|-----------------17-19-17----|
|---------15--|-(15)---16------|---------------|--------16h18h19-------------|
|-------------|----------------|---------------|-----------------------------|
|-------------|----------------|---------------|-----------------------------|
|-------------|----------------|---------------|-----------------------------|


  G5                E5
   S  S  S  S  S  S  S  S  S  S  S  S  S  S  S  S
|-------------------15----------------------------|
|-17-19-17-15-17-19----17-19-15-17-15-------------|
|-------------------------------------18p16p14-16-|
|-------------------------------------------------|
|-------------------------------------------------|
|-------------------------------------------------|


          ~~~~
   E     +Q.    S  S  S  S  S  S  E
|------------------------------------|
|------------------------------------|
|-14b16r(14)-------------------------|
|--------------17p14-----------------|
|--------------------17p14-12h14-12--|
|------------------------------------|


  G5                    E5
  Gtr II
  |-3-|                 |-3-| |-3-|                 |-3-|
  S S S T T T T T T T T S S S S S S T T T T T T T T S S S
|----------------------------------------------------------|
|----------------------------------------------------------|
|----------------------------------------------------------|
|-------4h5h7p5s4h5h7h9p7p5---------4h5h7p5p4s5h7h9p7p5----|
|-4h5h7---------------------9-4h5h7---------------------9--|
|----------------------------------------------------------|


  |-3-|             |-3-|     |-3-|         |-3-|
  S S S T T T T T T T T T S S S S S T T T T S S S E
|----------------------------------------------------|
|----------------------------------------------------|
|----------------------------------------------------|
|-------4h5h7p4s5h7h9p7p5s4---4h5h7h9p7p5s4-------7\-|
|-4h5h7---------------------5---------------7p5p4----|
|----------------------------------------------------|


  G5                  E5
  |----6----|            |-3-|                 |-3-|
  S S S S S S T T T T E  S S S T T T T T T T T S S S
|----------------------------------------------------|
|----------------------------------------------------|
|----------------------------------------------------|
|---------4-5-7p4s5h7h9\-------4h5h7p5p4s5h7h9p7p5---|
|-2h4h5s7----------------4h5h7---------------------9-|
|----------------------------------------------------|


  |-3-|
  S S S T T T T T T T T T T T T T T T  T T T T T T T T T E
|-----------------------------------------------------------|
|-----------------------------------------------------------|
|-----------------------6h7h9p7p6s7h9h11p9p7s6h7h9p7p6------|
|-------4h5h7p5p4s5h7h9--------------------------------9-7--|
|-4h5h7--------------------------------------------------0--|
|-----------------------------------------------------------|


  G5                         E5
                                 |-3-|
  S T T T T T T T T T  T T T T T S S S T T T T T T T T T T T T
|---------------------------------------------------------------|
|---------------------------------------------------------------|
|-------6h7h9-7-6s7h9h11p9p7s6h7h9p7p6--------------------------|
|---7h9--------------------------------9p7p5s4h5h7p5p4----------|
|-0----------------------------------------------------7p5p4s5h=|
|---------------------------------------------------------------|


  T T T T T T T T T T T S T S T T T T T T T T T T T T S S
|----------------------------------------------------------|
|----------------------------------------------------------|
|----------------------------------------------------------|
|---5h7h9p7p5s4h5h7p5p4-------5h7h9p7p5s4h5h7p5p4----------|
|-7---------------------7p5p4---------------------7p5p4s2--|
|----------------------------------------------------------|


  G5                    E5
                                |----6----|
  T T S T T T T T T T T T T T T S S S S S S T T T T S T T
|-----------------------------------------------------------|
|-----------------------------------------------------------|
|-----------------------------------------------------------|
|-4h5h7---------5h7h9p7p5s4h5h7-4h5h7s9p7p5s4h7p5p4---------|
|-------4s5h7h9-------------------------------------4s5h7h==|
|-----------------------------------------------------------|


  |----6----| |----6----|                       |----6----|
  S S S S S S T T T T T T S T T T T T T T T T T S S S S S S
|-----------------------------------------------------------|
|-----------------------------------------------------------|
|-----------------------------------------------------------|
|---5h7h9p7p5s4h5h7p5p4p0---------5h7h9p7p5s4h5h7p5p4-------|
|-9-----------------------4s5h7h9---------------------7p5p3-|
|-----------------------------------------------------------|


  G5   E5
  Gtr I
   E E E E E S S S S E   S S E E E Q  +E  e
|-/6-------------------|--------------------|
|----7-----------------|--------------------|
|------6---------------|---------7s6--(6)-7-|
|--------7s5-7-5-7-5---|-7-5-7s9------------|
|--------------------7-|--------------------|
|----------------------|--------------------|


  G5                  E5
  Gtr II
  |----6----|                 |----6----|
  S S S S S S T T T T T T T T S S S S S S T T T T T T T T
|----------------------------------------------------------|
|----------------------------------------------------------|
|----------------------------------------------------------|
|-------2h4h5s7p5p4s5h7h9p7p5-------2h4h5s7p5p4s5h7h9p7p5--|
|-2h4h5-----------------------2h4h5------------------------|
|----------------------------------------------------------|


  |-3-|
  S S S T T T T T T T T T T T T T T T  T T T T T T T T T E
|-----------------------------------------------------------|
|-----------------------------------------------------------|
|-----------------------6h7h9p7p6s7h9h11p9p7s6h7h9p7p6------|
|-------4h5h7p5p4s5h7h9--------------------------------9-7--|
|-4h5h7--------------------------------------------------0--|
|-----------------------------------------------------------|


  G5E5                                           G5         E5
  Gtr I
                            |--3--|                |-3--|
  H    E  E  S.  T  E    E  S  S  S  E  E H      E S  S S E  E  E  E E E
|---------------------|------------------------|--------------------------|
|--------19-17--15-17-|-17-15h17p15----15------|--------------------------|
|---------------------|-------------18---------|--------------------------|
|---------------------|------------------------|---------------------8h9s=|
|---------------------|------------------------|---8h10p8s7-------10------|
|---------------------|------------------------|------------11s12---------|


                           G5                      E5
                                                                      \1/
             ~~~
                                                          |--3--| |-3-|
   E  E E E +Q   Q         Q               E        S  S  E  E  E E E E
|------------------------|-------------------------15p14p13-15\-----------|
|------------------------|----------------------------------------6p3-0---|
|------------------------|--------------------------------------------0---|
|-12p11s9s8-(8)----------|------------------------------------------------|
|------------------------|------------------------------------------------|
|------------------------|------------------------------------------------|
|
| Gtr II
|                  |-3-|
|  H         Q   E S S S   T T T T T T T T T T T T  E     H
|------------------------|------------------------------------------------|
|------------------------|------------------------------------------------|
|------------------------|------------------------------------------------|
|------------------4s5h7h|=9p7p5s4---------4h5h7p5------------------------|
|------------------------|---------5p4h5h7--------------------------------|
|------------------------|------------------------------------------------|


                              G5                     E5
        \1____\2_________|                                         \1/
                                                   ~~~~~~~
  +Q   +Q    +Q.    +S  +S    Q                 T  T  +E.  +E  E e E
|---------------------------|------------------------------------------|
|-(0)--(0)---(0)----(0)-(0)-|------------------15-17-(17)-(17)-----0---|
|-(0)--(0)---(0)----(0)-(0)-|------------------------------------0-0---|
|---------------------------|------------------------------------0-----|
|---------------------------|------------------------------------------|
|---------------------------|------------------------------------------|
|
|  W                          T T T T T T T  T  Q           H
|---------------------------|------------------------------------------|
|---------------------------|------------------------------------------|
|---------------------------|-6h7h9p7p6s7h9h11-------------------------|
|---------------------------|------------------------------------------|
|---------------------------|------------------------------------------|
|---------------------------|------------------------------------------|


 Chorus
                              G5            E5
        \1____\2_________|
  +Q   +Q    +Q.    +S  +S     S  S  S  S Q       E.       S  Q
|---------------------------|------------------------------------|
|-(0)--(0)---(0)----(0)-(0)-|------------------------------------|
|-(0)--(0)---(0)----(0)-(0)-|----------12------------------------|
|---------------------------|-12-11-12---------------------------|
|---------------------------|------------------------------------|
|---------------------------|-----------------------------15\----|
|
|                                           |-3-| |-3-|
|  W                           Q          E S S S S S S E     Q
|---------------------------|------------------------------------|
|---------------------------|------------------------------------|
|---------------------------|------------------------------------|
|---------------------------|---------------------2h4h5----------|
|---------------------------|---------------2h4h5----------------|
|---------------------------|------------------------------------|


                                          G5            E5
   e S S  e E H                            S  S  S  S Q  H
|---------------------------------------|------------------------------------|
|---------------------------------------|------------------------------------|
|---------------------------------------|----------14------------------------|
|--------14-----------------------------|-12-11-12---------------------------|
|---------------------------------------|------------------------------------|
|-12-x-x--------------------------------|------------------------------------|
|
|                                                        |----6----| |-3-|
|  H          T T T T T T T T T T T T E    H             S S S S S S S S S E
|---------------------------------------|------------------------------------|
|---------------------------------------|------------------------------------|
|-----------------------------6h7h9p7---|------------------------------------|
|-------------4h5h7p5p4s5h7h9-----------|----------------------2h4h5s7p4h5---|
|---------------------------------------|----------------2h4h5---------------|
|---------------------------------------|------------------------------------|


   S  S  S  S Q  Q             E         S  S
|---------------------------------------------|
|---------------------------------------------|
|---------------------------------------12-11-|
|----------14---------------------------------|
|-12-10-12------------------------------------|
|---------------------------------------------|
|
|                |-3-|
|  H             S S S T T T T T T T  T  E
|---------------------------------------------|
|---------------------------------------------|
|----------------------6h7h9p7p6s7h9h11-------|
|----------------5h7h9------------------------|
|---------------------------------------------|
|---------------------------------------------|


  G5            E5
   S  S  S  S Q       H
|-------------------------------------------|
|----------14-------------------------------|
|-12-11-12----------------------------------|
|-------------------------------------------|
|-------------------------------------------|
|-------------------------------------------|
|
|               |-3-|
|  Q          E S S S T T T T T T T T E  E
|-------------------------------------------|
|-------------------------------------------|
|-------------------------------------------|
|---------------2h4h5h7p5s4h5h7h9p7p5-------|
|-------------------------------------------|
|-------------------------------------7/----|


   S  S  S  S Q  H
|----------------------------------------|
|----------------------------------------|
|----------------------------------------|
|----------14----------------------------|
|-12-11-12-------------------------------|
|----------------------------------------|
|
|  H             T T T T T T T T T T S E
|----------------------------------------|
|----------------------------------------|
|----------------7p4s5h7h9p7p5s4---------|
|--------------------------------7p5p4---|
|----------------------------------------|
|----------------------------------------|


                                 D.S. al Coda
   S  S  S  S Q  H       S    S    S  S Q  H
|---------------------|--------------------------|
|---------------------|--------------------------|
|----------12---------|--------------------------|
|-12-11-12------------|--------------14----------|
|---------------------|-12---10---12-------------|
|---------------------|--------------------------|
|
|  W                     T T  T T  E    Q  H
|---------------------|--------------------------|
|---------------------|--------------------------|
|---------------------|--9-7--6------------------|
|---------------------|---------9--7-------------|
|---------------------|------------0-------------|
|---------------------|--------------------------|


  &
  Gtr II
   S  S  S  S Q   S  S  S  S Q
|-------------------------------||
|-------------------------------||
|-------------------------------||
|----------14-------------14----||
|-12p10h12--7----12p10h12--7----||
|--5p=3h=5--------5p=3h=5-------||


 Outro
  E5      C#5
  S S E E  E E  E E  E   E  E E  E  E  E E S S
|----------------------|-----------------------|
|----------------------|-----------------------|
|-----9----------------|--------12----11---9p6-|
|---------11---11---11-|---11------------------|
|---7---7--------------|-----------11----7-----|
|-7----------9----9----|-9----9----------------|


  E5      C#5                                    E5      C#5
  Gtr V
  S S E E  E E  E E  E   E  E  E  E E  E  E  E   S S E E  E E  E E  E
|----------------------|-----------------------|----------------------|
|----------------------|--------------11-------|----------------------|
|-----9----------------|---12----13---------12-|-----9----------------|
|---------11---11---11-|------------9----------|---------11---11---11-|
|---7---7--------------|------10---------11----|---7---7--------------|
|-7----------9----9----|-9---------------------|-7----------9----9----|


                           F#5     C#5  B#5  B5    A#5 A5  G#5
  E  E  E  E  E  E  E  E   S S E E  E E  E E E   E E E E E E  Q
|------------------------|---------------------|-----------------|
|---14----13-------------|---------------------|-----------------|
|---------------12----13-|-----9---------------|-----------------|
|------11----10----------|---------11---10---9-|---8---7---6/----|
|------------------10----|-------7-------------|-----------------|
|-9----------------------|-7h9--------9----8---|-7---6---5-------|


  Em                     C                E/Bb                  E/G#
  Q    +E  E +E  E E E   Q  E E E E E E   Q    +E  E +E  E E E   W
|----------------------|----------------|----------------------|------*|
|----------------------|----------------|----------------------|------*|
|----------------------|----------------|----------------------|------*|
|-5b7--(5)-------------|----------------|-5b7--(5)-------------|------*|
|----------7-(7)-7---7-|-7----7---7---7-|----------7-(7)-7---7-|-7----*|
|-0----(0)-------------|-8--------------|-6----(6)-------------|-4----*|



Duration Legend
---------------
W - whole; H - half; Q - quarter; E - 8th; S - 16th; T - 32nd; X - 64th; a - acciaccatura
+ - note tied to previous; . - note dotted; .. - note double dotted
Uncapitalized letters represent notes that are staccato (1/2 duration)
Irregular groupings are notated above the duration line
Duration letters will always appear directly above the note/fret number it represents the
duration for.  Duration letters with no fret number below them represent rests.  Multi-
bar rests are notated in the form Wxn, where n is the number of bars to rest for.  Low
melody durations appear below the staff

Tablature Legend
----------------
 h   - hammer-on
 p   - pull-off
 b   - bend
 pb  - pre-bend
 r   - bend release (if no number after the r, then release immediately)
 /\  - slide into or out of (from/to "nowhere")
 s   - legato slide
 S   - shift slide
 - natural harmonic
[n]  - artificial harmonic
n(n) - tapped harmonic
 ~   - vibrato
 tr  - trill
 T   - tap
 TP  - trem. picking
 PM  - palm muting
\n/  - tremolo bar dip; n = amount to dip
 \n  - tremolo bar down
 n/  - tremolo bar up
/n\  - tremolo bar inverted dip
 =   - hold bend; also acts as connecting device for hammers/pulls
 <> - volume swell (louder/softer)
 x   - on rhythm slash represents muted slash
 o   - on rhythm slash represents single note slash

Misc Legend
-----------
 |  - bar
||  - double bar
||o - repeat start
o|| - repeat end
*|  - double bar (ending)
 :  - bar (freetime)
 $  - Segno
 &  - Coda
Tempo markers -  = BPM(8/16=s8/s16), where s8 = swing 8ths, s16 = swing 16ths


albums
tabs

 

1