Search tabs:
Browse artists: 0-9 | A | B | C | D | E | F | G | H | I | J | K | L | M | N | O | P | Q | R | S | T | U | V | W | X | Y | Z
/ Joe Satriani / Engines of Creation (2000) / Clouds Race Across the Sky guitar tab

CLOUDS RACE ACROSS THE SKY
As recorded by Joe Satriani
From the 2000 Album ENGINES OF CREATIONS
Music by Joe Satriani
Arranged by Joe Satriani & Eric Caudieux


Gtr I (E A D G B E) - 'Clean 1'
Gtr II (E A D G B E) - 'Clean 1'
Gtr III (E A D G B E) - 'Clean '
Gtr IV (E A D G B E) - 'Dist'
Gtr V (E A D G B E) - 'Dist 2'
Gtr VI (E A D G B E) - 'Solo Guit'
  ^All Guitars Joe Satriani^

 Q=96
 3/4
  Gtrs I, II
  S S S  S S S S S S S E   S S S  S S S S S S S E
|----------------------7-|----------------------7-|
|--------------7-----7---|--------------7-----7---|
|-----9------9-----9-----|-----9------9-----9-----|
|---7------7-----7-------|---7------7-----7-------|
|-------10---------------|-------10---------------|
|-8----------------------|-8----------------------|


  S S S S S S S S S S E   S S S S S S S S S S E
|---------------------7-|---------------------7-|
|-------------7-----7---|-------------7-----7---|
|-----9-----9-----9-----|-----9-----9-----9-----|
|---7-----7-----7-------|---7-----7-----7-------|
|-------9---------------|-------9---------------|
|-7---------------------|-7---------------------|


    S S S  S S S S S  S  S E     S S S  S S S S S  S  S E
||-------------------------7---|------------------------7--|
||o--------------7-------7-----|--------------7-------7----|
||------9------9------9--------|-----9------9------9-------|
||----7------7-----7-----------|---7------7-----7----------|
||o-------10-------------------|-------10------------------|
||--8--------------------------|-8-------------------------|
|
|   Gtr III
|   S S S  S S S S S +E    S S   S S S  S S S S S +E    S S
||-----------------------------|---------------------------|
||o----------------------------|---------------------------|
||-----------------------------|---------------------------|
||--x-x-x--7-x-x-x-7-(7)---7-7-|-x-x-x--7-x-x-x-7-(7)---7-7|
||o----------------------------|---------------------------|
||-----------------------------|---------------------------|


  1.
  S S S S S S S S  S  S E     S S S S S S S S  S  S E
|-----------------------7---|-----------------------7----||
|-------------7-------7-----|-------------7-------7-----o||
|-----9-----9------9--------|-----9-----9------9---------||
|---7-----7-----7-----------|---7-----7-----7------------||
|-------9-------------------|-------9-------------------o||
|-7-------------------------|-7--------------------------||
|
| S S S S S S S S +E    S S   S S S S S S S S +E    S S
|---------------------------|----------------------------||
|---------------------------|---------------------------o||
|---------------------------|----------------------------||
|-x-x-x-7-x-x-x-7-(7)---7-7-|-x-x-x-7-x-x-x-7-(7)---7-7--||
|---------------------------|---------------------------o||
|---------------------------|----------------------------||


  2.
  S S S S S S S S S S E    H.
|---------------------7-|-(7)----||
|-------------7-----7---|--------||
|-----9-----9-----9-----|--------||
|---7-----7-----7-------|--------||
|-------9---------------|--------||
|-7---------------------|--7-----||


    Gtr IV
    Q        E   S S E   E   S  E    S Q       Q
||-------------------------|------------------------|
||o------------------------|------------------------|
||---------------9S7S9S==7S|=9S11S==12--------------|
||-------------------------|------------------------|
||o------------------------|------------------------|
||-------------------------|------------------------|
|
|   Gtrs I, II
|   S S S  S S S S S S S E   S  S S  S S S S S S S E
||-----------------------7-|-----------------------7|
||o--------------7-----7---|---------------7-----7--|
||------9------9-----9-----|------9------9-----9----|
||----7------7-----7-------|----7------7-----7------|
||o-------10---------------|--------10--------------|
||--8----------------------|-8----------------------|


  E    S S  E   E    Q        +E.    S +H
|--------------------------|-----------------------------|
|--------------------------|-----------------------------|
|-----11S9S11S==9S==11-----|-(11)------------------------|
|--------------------------|--------\9-(9)---------------|
|--------------------------|-----------------------------|
|--------------------------|-----------------------------|
|
| S S  S S  S S S S  S S E     S  S  S  S  S S S S S S E
|------------------------7-|---------------------------7-|
|---------------7------7---|-------------------7-----7---|
|------9------9------9-----|---------9-------9-----9-----|
|---7-------7-----7--------|------7--------7-----7-------|
|--------9-----------------|------------9----------------|
|-7------------------------|---7-------------------------|


  +E    E    E   S S E   E   S  E    S Q   E      S S
|--------------------------|--------------------------|
|--------------------------|--------------------------|
|----------------9S7S9S==7S|=9S11S==12-----------11S9-|
|-(9)----------------------|--------------------------|
|--------------------------|--------------------------|
|--------------------------|--------------------------|
|
|  S  S S  S S S S S S S E   S  S S  S S S S S S  S E
|------------------------7-|------------------------7-|
|----------------7-----7---|---------------7------7---|
|-------9------9-----9-----|------9------9-----9------|
|-----7------7-----7-------|----7------7-----7--------|
|---------10---------------|--------10----------------|
|--8-----------------------|-8------------------------|


  1.
    H.                        H.
|--------------------------|--------------------------||
|-/12----------------------|-------------------------o||
|--------------------------|-11-----------------------||
|--------------------------|--------------------------||
|--------------------------|-------------------------o||
|--------------------------|--------------------------||
|
|   S  S S S S S S S S S E    S  S S S S S S S S S E
|------------------------7-|-----------------------7--||
|----------------7-----7---|---------------7-----7---o||
|--------9-----9-----9-----|-------9-----9-----9------||
|------7-----7-----7-------|-----7-----7-----7--------||
|----------9---------------|---------9---------------o||
|---7----------------------|--7-----------------------||


  2.
                                   ~~~~
    E.  S  +H                     +Q.       E     Q
|------------------------------|------------------------------||
|-/12--12-(12)-----------------|-(12)-----(12)\---------------||
|------------------------------|------------------------------||
|------------------------------|------------------------------||
|------------------------------|------------------------------||
|------------------------------|------------------------------||
|
|   S   S   S  S S S S S S S E     S  S S   S   S S S S S S E
|----------------------------7-|----------------------------7-||
|--------------------7-----7---|--------------------7-----7---||
|-----------9------9-----9-----|--------9---------9-----9-----||
|-------7--------7-----7-------|------7---------7-----7-------||
|--------------9---------------|------------9-----------------||
|---7--------------------------|---7--------------------------||


  $
  Gtr IV
                             ~~~
   H.                       +H                  E E
|-------------------------|-------------------------|
|-------------------------|-------------------------|
|-/8----------------------|-(8)-----------------8S9-|
|-------------------------|-------------------------|
|-------------------------|-------------------------|
|-------------------------|-------------------------|
|
| Gtrs I, II
|  S  S S S S S S S S S E    S  S S S S S S S S S E
|-----------------------5-|-----------------------5-|
|---------------5-----5---|---------------5-----5---|
|-------8-----8-----8-----|-------8-----8-----8-----|
|-----7-----7-----7-------|-----7-----7-----7-------|
|---------7---------------|---------7---------------|
|--5----------------------|--5----------------------|


  ~~~~~~~~~~~~~~~~~~~~~~~~~~~~~~~~~~~~~~~~~~~
  H.                        +H           +E    E
|-------------------------|----------------------------|
|-------------------------|----------------------------|
|-9-----------------------|-(9)----------(9)-----------|
|-------------------------|----------------------------|
|-------------------------|----------------------------|
|-------------------------|----------------------------|
|
| S  S S  S S S S S S S E    S  S S  S S  S  S S S S E
|-----------------------7-|--------------------------7-|
|---------------7-----7---|------------------7-----7---|
|------9------9-----9-----|-------9-------9------9-----|
|----7------7-----7-------|-----7------7-------7-------|
|--------10---------------|---------10-----------------|
|-8-----------------------|--8-------------------------|


    ~~~~~~~~~~~~~~~~~~~~~~~~~~~~~~
    H.                        +Q.       E          E  E
|--------------------------|----------------------------|
|-/11----------------------|-(11)-----------------11s12-|
|--------------------------|----------------------------|
|--------------------------|----------------------------|
|--------------------------|----------------------------|
|--------------------------|----------------------------|
|
|   S  S S S S S S S S S E     S  S S S S S S S S  S  E
|------------------------0-|--------------------------0-|
|----------------0-----0---|----------------0------0----|
|--------3-----3-----3-----|--------3-----3-----3-------|
|------4-----4-----4-------|------4-----4-----4---------|
|----------2---------------|----------2-----------------|
|---0----------------------|---0------------------------|


   ~~~~~~~~~~~~~~~~~~~~~~~~~~~~~~~~~~~~~~~~~~~~~~~~~~~~~
   H.                         +H                    +E   E
|--------------------------|-------------------------------|
|-12-----------------------|-(12)------------------(12)-12-|
|--------------------------|-------------------------------|
|--------------------------|-------------------------------|
|--------------------------|-------------------------------|
|--------------------------|-------------------------------|
|
|  S  S S  S S S S S S S E     S  S S  S S S S S S   S   E
|------------------------7-|-----------------------------7-|
|----------------7-----7---|-----------------7-------7-----|
|-------9------9-----9-----|--------9------9-----9---------|
|-----7------7-----7-------|------7------7-----7-----------|
|---------10---------------|----------10-------------------|
|--8-----------------------|---8---------------------------|


   ~~~                           ~~
   Q.            E     E    E    H                E    E
|---------------12---------10-|--------------------------|
|-13-----------------\12------|-10--------------------10-|
|-----------------------------|------------------12------|
|-----------------------------|--------------------------|
|-----------------------------|--------------------------|
|-----------------------------|--------------------------|
|
|  S  S S S S S  S S   S S  E    S S S S S S S S  S S  E
|---------------------------5-|------------------------5-|
|----------------5-------5----|--------------5------5----|
|-------5-----5--------5------|------5-----5------5------|
|-----9-----9------9----------|----9-----9-----9---------|
|---------7-------------------|--------7-----------------|
|--5--------------------------|--5-----------------------|


   ~~~
   Q.             E     E    E    H                 E   E
|----------------10------------|--------------------------|
|-12------------------\10s==12-|-\8----------------\5-----|
|------------------------------|--------------------------|
|------------------------------|--------------------------|
|------------------------------|--------------------------|
|------------------------------|--------------------------|
|
|  S  S S  S S S  S S   S S  E    S S S  S S S S S  S S E
|----------------------------7-|------------------------7-|
|-----------------7-------7----|---------------7------7---|
|-------9------9--------9------|------9------9------9-----|
|-----7------7------7----------|----7------7-----7--------|
|---------10-------------------|--------10----------------|
|--8---------------------------|--8-----------------------|


                                                       To Coda
  Gtr IV
   Q         +Q.             E    Q           +Q.        E
|-15--------(15)---------------|-14----------(14)----------------|
|------------------------------|---------------------------------|
|------------------------------|---------------------------------|
|------------------------------|---------------------------------|
|------------------------------|---------------------------------|
|------------------------------|---------------------------------|
|
| Gtr V
|  Q         +Q.             E    Q           +Q.        E
|-15--------(15)---------------|-17----------(17)----------------|
|------------------------------|---------------------------------|
|------------------------------|---------------------------------|
|------------------------------|---------------------------------|
|------------------------------|---------------------------------|
|------------------------------|---------------------------------|
|
| Gtrs I, II
|  S  S S S   S  S  S S S  S E    S  S  S  S   S   S  S  S  S E.
|---------7-----------7--------|---------------------------------|
|----------------8------8------|------------------------------0--|
|----11------------11-----11---|-------11------------11----11----|
|-------9--------------------9-|----14------------14----14-------|
|--7----------7----------------|----------12---------------------|
|------------------------------|-10-----------10-----------------|


  Gtr VI
   PM
   T  T  T T T T  T T T T  T T T T  T T T T T  T T T T T
|--------------------------------------------------------|
|--------------------------------------------------------|
|--------------------------------------------------------|
|--4--5--4-2---2--4-5-4-2----2-4-5--4-2---2-4--5-4-2---4-|
|------------5-------------5------------5------------5---|
|--------------------------------------------------------|
|
|  H.
|-19-----------------------------------------------------|
|-17-----------------------------------------------------|
|--------------------------------------------------------|
|--------------------------------------------------------|
|--------------------------------------------------------|
|--------------------------------------------------------|
|
| Gtrs I, II
|  S     S   S    S   S    S   S    S   S   E.
|--------------------------------------------------------|
|-------------------------------------------0------------|
|------------9-----------------9--------9----------------|
|-------12----------------12-------12--------------------|
|----------------10--------------------------------------|
|--8------------------8----------------------------------|


   PM
   T  T T T T T T T T T T T T T T T T T T T T T T T
|---------------------------------------------------|
|---------------------------------------------------|
|---------------------------------------------------|
|--4--5-4-2---2-4-5-4-2---2-4-5-4-2---2-4-5-4-2---4-|
|-----------5-----------5-----------5-----------5---|
|---------------------------------------------------|
|
| Gtrs I, II
| +H.
|---------------------------------------------------|
|-(0)-----------------------------------------------|
|---------------------------------------------------|
|---------------------------------------------------|
|---------------------------------------------------|
|---------------------------------------------------|


    PM
    T T T T T T  T T T T T T T T T T T T T T T T T T
||----------------------------------------------------||
||o--------------------------------------------------o||
||----------------------------------------------------||
||--4-5-4-2---2--4-5-4-2---2-4-5-4-2---2-4-5-4-2---4--||
||o---------5------------5-----------5-----------5---o||
||----------------------------------------------------||
|
|   S   S   S    S   S   S   S   S   S   S   E
||-------------------------------------------7--------||
||o--------------------------7-----------7-----------o||
||----------9------------9-----------9----------------||
||------7------------7-----------7--------------------||
||o-------------10-----------------------------------o||
||--8-------------------------------------------------||


  T T T T T T T T T T T T T T T T T T T T T T T T
|-------------------------------------------------|
|-------------------------------------------------|
|-------------------------------------------------|
|-4-5-4-2---2-----------2-------------------------|
|---------5---5-3-2-3-5---5-3-2-3---------5-2s3-5-|
|---------------------------------5-3-2-3---------|
|
| S   S   S   S   S   S   S   S   S   S   E
|-----------------------------------------7-------|
|-------------------------7-----------7-----------|
|---------9-----------9-----------9---------------|
|-----7-----------7-----------7-------------------|
|-------------9-----------------------------------|
|-7-----------------------------------------------|


  T T T X T T T X T X T T T T T T T T X T T X T T X T T
|--------------------------------------------------------|
|--------------------------------------------------------|
|-----------------------5-7-9-7-5------------------------|
|-------4-5-7-5-4S5-7-9-----------9-7-5s4-5-7-5-4--------|
|-3-5-7-------------------------------------------7-5-7--|
|--------------------------------------------------------|
|
| S   S   S   S   S   S   S   S   S   S   E
|-----------------------------------------7--------------|
|-------------------------7-----------7------------------|
|---------9-----------9-----------9----------------------|
|-----7-----------7-----------7--------------------------|
|-------------9------------------------------------------|
|-7------------------------------------------------------|


                           |-3-|
  +E.      S +E    E   S S S S S
|--------------------------------|
|--------------------------------|
|------------------------------4-|
|------------------------4-5-7---|
|-(7)------5-(5)-----------------|
|--------------------------------|
|
|  S  S S  S  S  S S S S S E
|--------------------------7-----|
|------------------7-----7-------|
|-------9--------9-----9---------|
|-----7-------7------7-----------|
|---------10---------------------|
|--8-----------------------------|


  |------3-------| |------3------| |-----3-----|
  S S   S S S    S S S   S S S   S S S   S S S S
|------------------------------------------------|
|------------------5-8---5-7-5-----5-------------|
|-5-4-----4-5----7---------------7---7---5s4-7-5-|
|-------7----------------------------------------|
|------------------------------------------------|
|------------------------------------------------|
|
| S   S   S    S   S   S   S   S   S   S   E
|------------------------------------------7-----|
|--------------------------7-----------7---------|
|---------9------------9-----------9-------------|
|-----7------------7-----------7-----------------|
|-------------10---------------------------------|
|-8----------------------------------------------|


  |------3------|
  S S   S S S   S T T T T E   E.     T T
|----------------------------------------|
|----------------------------------------|
|-4-------5-4-----4----------------------|
|---7-----------7---7-5-4-5----------5-7-|
|----------------------------------------|
|----------------------------------------|
|
| S   S   S   S   S   S   S S S  S E
|----------------------------------7-----|
|-------------------------7------7-------|
|---------9-----------9-------9----------|
|-----7-----------7---------7------------|
|-------------9--------------------------|
|-7--------------------------------------|


  |--3--|         |------3------|     |-3-|
  S S   S T T T T S S   S S S   S S S S S S
|-------------------------------------------|
|-------------------------------------------|
|---------------------------5---7-5---5-7s9-|
|-5-----5-----------5---7-9---------9-------|
|---9-----9-7-5-7-9-------------------------|
|-------------------------------------------|
|
| S   S   S   S   S   S   S   S   S S E
|-------------------------------------7-----|
|-------------------------7---------7-------|
|---------9-----------9-----------9---------|
|-----7-----------7-----------7-------------|
|-------------9-----------------------------|
|-7-----------------------------------------|


  |-3-| |---3---| |-------3-------|
  E   S S S     S S  S   S S S    S T  T T T  E
|-----------------7-10---7-8-7------7--------12-|
|-7-----7-8----10----------------10---10-8-7----|
|-----9-----------------------------------------|
|-----------------------------------------------|
|-----------------------------------------------|
|-----------------------------------------------|
|
| S S   S    S    S    S   S   S    S    S    E
|---------------------------------------------7-|
|--------------------------7-------------7------|
|-------9--------------9------------9-----------|
|---7-------------7------------7----------------|
|-----------10----------------------------------|
|-8---------------------------------------------|


   +E.      T  T S E.      S  S  T  T  T  T
|-(12)------8-------------------------12-14--|
|-------------12-8--------10s12-13-15--------|
|--------------------------------------------|
|--------------------------------------------|
|--------------------------------------------|
|--------------------------------------------|
|
|   S  S S  S    S S  S S  S  S  E
|--------------------------------7-----------|
|---------------------7-------7--------------|
|--------9---------9-------9-----------------|
|------7---------7------7--------------------|
|----------10--------------------------------|
|---8----------------------------------------|


   |--------3---------|
   S  S    S  S  S    S  E.      T  T  T  T  T  T  T  T  T  T
|----12---14-15-14---12-14------12----12----------------------|
|-15-------------------------------15----15-13-12-15-13-12----|
|----------------------------------------------------------14-|
|-------------------------------------------------------------|
|-------------------------------------------------------------|
|-------------------------------------------------------------|
|
|  S    S     S    S     S  S S  S     S     S     E
|--------------------------------------------------7----------|
|-----------------------------7--------------7----------------|
|-------------9-------------9----------9----------------------|
|-------7----------------7-------7----------------------------|
|------------------9------------------------------------------|
|--7----------------------------------------------------------|


   T  T  T  T  T  T  T  T E    a  a  S  S S  S  S  S
|-----------------------------------14-17---14-15-12-|
|-12-13-12----12-----------------15------------------|
|----------14----14-12-11-----16---------------------|
|----------------------------------------------------|
|----------------------------------------------------|
|----------------------------------------------------|
|
|  S     S     S     S    S S        S  S S  S  E
|-----------------------------------------------7----|
|------------------------------------7-------7-------|
|--------------9------------9-------------9----------|
|--------7----------------7-------------7------------|
|--------------------9-------------------------------|
|--7-------------------------------------------------|


                        ~~~~
   S  E        S        Q         +E     E
|-14---------------------------------------|
|----15b17r==(15)b17==(15)-------(15)\-----|
|------------------------------------------|
|------------------------------------------|
|------------------------------------------|
|------------------------------------------|
|
|  S  S    S   S        S  S S S   S   S E
|----------------------------------------7-|
|----------------------------7---------7---|
|----------9---------------9-------9-------|
|-----7-----------------7------7-----------|
|-------------10---------------------------|
|--8---------------------------------------|


                               ~~~~~~~~~~~~~
  S  E    S S  S S S S S S S   E.     S +E    E   S  S E
|---------7------------------|----------------------------|
|---10------7-10-------------|----------------------------|
|----------------7s9s7-------|----------------------------|
|----------------------9-7s9-|-9------9-(9)---9---9s17----|
|----------------------------|----------------------------|
|----------------------------|-------------------------x\-|
|
| S  S S  S S  S S S S S E     S  S S S  S  S S S S  S E
|------------------------7---|-------------------------7--|
|----------------7-----7-----|----------------7------7----|
|------9-------9-----9-------|------9-------9-----9-------|
|----7------7------7---------|----7------7------7---------|
|--------10------------------|--------9-------------------|
|-8--------------------------|-7--------------------------|


                       D.S. al Coda
  E.     S  E    E    Q
|--------------------------------------||
|--------------------------------------||
|--------------------------------------||
|--------9-(9)---9---(9)---------------||
|--------x--x----x----x----------------||
|-7------7-(7)---7---(7)---------------||
|
| S  S S S  S  S S S  S  S E
|--------------------------7-----------||
|----------------7-------7-------------||
|------9-------9------9----------------||
|----7------7------7-------------------||
|--------9-----------------------------||
|-7------------------------------------||


  &
                                >
   H.                          +H.
|-19------------------------|-(19)-----------------------|
|-17------------------------|-(17)-----------------------|
|---------------------------|----------------------------|
|---------------------------|----------------------------|
|---------------------------|----------------------------|
|---------------------------|----------------------------|
|
|  S  S S S S S S S +E  S S     S  S S S S S S S +E  S S
|---------------------------|----------------------------|
|---------------------------|----------------------------|
|---------------------------|----------------------------|
|--x--x-x-7-x-x-x-7-(7)-7-7-|---x--x-x-7-x-x-x-7-(7)-7-7-|
|---------------------------|----------------------------|
|---------------------------|----------------------------|


  Gtr IV
              ~~~         ~~         ~~~~~~~~~~~~~
  a Q        +Q        a  Q        a Q          H
|-------------------------------|-------------------------|
|-------------------------------|-------------------------|
|-7S9--------(9)-------9s11-----|-11s7----------7---------|
|-------------------------------|-------------------------|
|-------------------------------|-------------------------|
|-------------------------------|-------------------------|
|
|   S S S  S  S  S S S    S S E    S S S  S S S S S S S E
|-----------------------------7-|-----------------------7-|
|------------------7--------7---|---------------7-----7---|
|-------9--------9--------9-----|------9------9-----9-----|
|-----7-------7------7----------|----7------7-----7-------|
|---------10--------------------|--------10---------------|
|---8---------------------------|--8----------------------|


              ~~~~~~~~~~~~~~~~~~
  Q       E   E   +Q        +E    E   H
|-------------------------|-------------------------|
|-------------------------|-------------------------|
|-------------------------|-------------------------|
|-------------9---(9)-----|-(9)---9s==7-------------|
|-------------------------|-------------------------|
|-------------------------|-------------------------|
|
| S S S S S S S S  S  S E    S  S S S S S S S S S E
|-----------------------7-|-----------------------7-|
|-------------7-------7---|---------------7-----7---|
|-----9-----9------9------|-------9-----9-----9-----|
|---7-----7-----7---------|-----7-----7-----7-------|
|-------9-----------------|---------9---------------|
|-7-----------------------|--7----------------------|


                                ~~~~~~~~~~~~~~~~~~~~~
  Q        E.     S +S  E   S   H                +E    S  S
|-----------------------------|-----------------------------|
|-----------------------------|-----------------------------|
|-----------------------------|-----------------------------|
|-----------------------7---9-|-9----------------(9)---7----|
|-----------------9-(9)-------|--------------------------10-|
|-----------------------------|-----------------------------|
|
| S S S  S S  S S S  S  S E     S S S  S S S S S  S  S E
|-------------------------7---|------------------------7----|
|---------------7-------7-----|--------------7-------7------|
|-----9-------9------9--------|-----9------9------9---------|
|---7------7------7-----------|---7------7-----7------------|
|-------10--------------------|-------10--------------------|
|-8---------------------------|-8---------------------------|


                          ~~
  Q   Q       S S E       Q.     E   E.         S
|-----------------------|-------------------------|
|-----------------------|-------------------------|
|-----------------------|-------------------------|
|-----------------------|-------------------------|
|-9-------------7-7-----|-7---------------------0-|
|-----------------------|-------------------------|
|
| S S S S S S S S S S E   S  S S S S S  S S S S E
|---------------------7-|-----------------------7-|
|-------------7-----7---|---------------7-----7---|
|-----9-----9-----9-----|------9-----9------9-----|
|---7-----7-----7-------|----7-----7------7-------|
|-------9---------------|--------9----------------|
|-7---------------------|-7-----------------------|


  \1/               \1/              \1/
                                           ~
  E     E    S E    a  S +S  S S S   E     E    +e  S S Q
|----------------------------------|----------------------------|
|----------------------------------|----------------------------|
|------------------------------4-5-|-7-----9----(9)-9-7---------|
|------------2-4---(4)s5-(5)-4-----|----------------------------|
|-2-----3--------------------------|----------------------------|
|----------------------------------|----------------------------|
|
| S   S S  S S S S     S  S  S E     S   S S  S  S  S S S S S E
|------------------------------7---|--------------------------7-|
|----------------7-----------7-----|------------------7-----7---|
|-------9------9----------9--------|-------9--------9-----9-----|
|-----7------7---------7-----------|-----7-------7------7-------|
|---------10-----------------------|---------10-----------------|
|-8--------------------------------|-8--------------------------|


                                               \1/
  E    E    Q        S  S E   E    E   Q       Q
|---------------------------|--------------------------|
|---------------------------|--------------------------|
|---------------------------|------------------7-------|
|-----12---14-------12s11---|-----12-------------------|
|---------------------------|--------------------------|
|---------------------------|--------------------------|
|
| S S  S S  S S S S  S  S E   S S  S S S S S S S   S E
|-------------------------7-|------------------------7-|
|---------------7-------7---|--------------7-------7---|
|------9------9------9------|------9-----9-----9-------|
|---7-------7-----7---------|---7------7-----7---------|
|--------9------------------|--------9-----------------|
|-7-------------------------|-7------------------------|


   E    Q        E   +S  S E   +E    S  S +E    E   E   E
|----------------------------|----------------------------|
|-(7)---5--------------------|----------------------------|
|----------------7---(7)-5s4-|-(4)------------------------|
|----------------------------|-------7--5-(5)---4---------|
|----------------------------|----------------------7---5-|
|----------------------------|----------------------------|
|
|  S  S S  S S S S S  S  S E    S  S S  S  S  S S S S S E
|--------------------------7-|--------------------------7-|
|----------------7-------7---|------------------7-----7---|
|-------9------9------9------|-------9--------9-----9-----|
|-----7------7-----7---------|-----7-------7------7-------|
|---------10-----------------|---------10-----------------|
|--8-------------------------|--8-------------------------|


  E   Q.             Q         W
|----------------------------|---------------------------|
|----------------------------|---------------------------|
|----------------------------|---------------------------|
|----------------------------|---------------------------|
|-3s==2----------------------|---------------------------|
|----------------------------|---------------------------|
|
| Gtr V
| S S S  S E.      S S S E     S S S S E.      S S S E
|----------------------------|---------------------------|
|----------------------------|---------------------------|
|----------------------------|---------------------------|
|-2-4-4--4---------4-4-4-----|-2-4-4-4---------4-4-4-----|
|-2---2--2---------2-2-2-----|-2---2-2---------2-2-2-----|
|----------------------------|---------------------------|
|
| Gtr VI
| E   S  S S  S E.     S S S   E   S S S  S E.     S S S
|----------------------------|---------------------------|
|----------------------------|---------------------------|
|----------------------------|---------------------------|
|-----2--4-4--4--------4-4-4-|-----2-4-4--4--------4-4-4-|
|-----2----2--2--------2-2-2-|-----2---2--2--------2-2-2-|
|----------------------------|---------------------------|


  S  S S  S S  S S   S  +S   E   S
|--------14-----------------12------|
|-0-12---------0----10-(10)------0--|
|-----------------------------------|
|-----------------------------------|
|-----------------------------------|
|-----------------------------------|
|
| S  S S  S E.       S   S   S E
|-----------------------------------|
|-----------------------------------|
|-----------------------------------|
|-4--5-5--4----------4---4---4------|
|-3----3--3----------3---3---3------|
|-----------------------------------|
|
| E    S  S S  S E.          S S S
|-----------------------------------|
|-----------------------------------|
|-----------------------------------|
|------4--5-5--4-------------4-4-4--|
|------3----3--3-------------3-3-3--|
|-----------------------------------|


   S  S S  S  S  S  S   S  +S  E  S    +S   S S  S  S S   S  S  +S  S  S  S
|----14------17--------14-(14)------|------12------14-------17-(17)------14-|
|-12----0-15-----0-12----------0-10-|-(10)----0-12----0--15---------0-12----|
|-----------------------------------|---------------------------------------|
|-----------------------------------|---------------------------------------|
|-----------------------------------|---------------------------------------|
|-----------------------------------|---------------------------------------|
|
|  S  S S  S  E.        S   S  S  E         S S  S  S E.         S  S  S  E
|-----------------------------------|---------------------------------------|
|-----------------------------------|---------------------------------------|
|-----------------------------------|---------------------------------------|
|--4--5-5--4------------4---4--4----|-------2-4--4--4------------4--4--4----|
|--3----3--3------------3---3--3----|-------2----2--2------------2--2--2----|
|-----------------------------------|---------------------------------------|
|
|  E    S  S  S  S  E.      S  S  S         S S  S  S E.         S  S  S  E
|-----------------------------------|---------------------------------------|
|-----------------------------------|---------------------------------------|
|-----------------------------------|---------------------------------------|
|-------4--5--5--4----------4--4--4-|-------2-4--4--4------------4--4--4----|
|-------3-----3--3----------3--3--3-|-------2----2--2------------2--2--2----|
|-----------------------------------|---------------------------------------|


   +S  S  S  S  +S  S  S   S S  S  S S
|-(14)------12-(12)-------14------17---|
|------0-10---------0-12-----0-15----0-|
|--------------------------------------|
|--------------------------------------|
|--------------------------------------|
|--------------------------------------|
|
|   S  S  S  S   E.        S S  S  E
|--------------------------------------|
|--------------------------------------|
|--------------------------------------|
|---2--4--4--4-------------4-4--4------|
|---2-----2--2-------------2-2--2------|
|--------------------------------------|
|
|   E     S  S   S  S  E.       S  S S
|--------------------------------------|
|--------------------------------------|
|--------------------------------------|
|---------2--4---4--4-----------4--4-4-|
|---------2------2--2-----------2--2-2-|
|--------------------------------------|


   S  S S  S  S  S  S   S  +S  S  S  S    +S  S  S  S S   S  S  S  E    S  S
|----14------12--------14-(14)------17-|-(17)------14-------12---------------|
|-12----0-12-----0-12----------0-15----|------0-12----0--10-----0-12------15-|
|--------------------------------------|-------------------------------11----|
|--------------------------------------|-------------------------------------|
|--------------------------------------|-------------------------------------|
|--------------------------------------|-------------------------------------|
|
|  S  S S  S  E.        S   S  S  E        S  S  S  S E.        S  S S  E
|--------------------------------------|-------------------------------------|
|--------------------------------------|-------------------------------------|
|--------------------------------------|-------------------------------------|
|--4--5-5--4------------4---4--4-------|---4--5--5--4-----------4--4-4-------|
|--3----3--3------------3---3--3-------|---3-----3--3-----------3--3-3-------|
|--------------------------------------|-------------------------------------|
|
|  E    S  S  S  S  E.         S  S  S     E     S  S S   S  E.      S  S  S
|--------------------------------------|-------------------------------------|
|--------------------------------------|-------------------------------------|
|--------------------------------------|-------------------------------------|
|-------4--5--5--4-------------4--4--4-|---------4--5-5---4----------4--4--4-|
|-------3-----3--3-------------3--3--3-|---------3----3---3----------3--3--3-|
|--------------------------------------|-------------------------------------|


   S S  S  S  +S  S  E     S T  T  S  S   S  S  S S  S   S S   S  S S  E
|-17------19-(19)---------17---------14-|------12-------14-------17--------|
|----0-17---------0-15-------0-12-12----|-0-12----0-12-----0--15----0-10---|
|---------------------------------------|----------------------------------|
|---------------------------------------|----------------------------------|
|---------------------------------------|----------------------------------|
|---------------------------------------|----------------------------------|
|
|  S S  S  S   E.       S  S S     E      S  S  S S  E.        S  S S  E
|---------------------------------------|----------------------------------|
|---------------------------------------|----------------------------------|
|---------------------------------------|----------------------------------|
|--2-4--4--4------------4--4-4----------|-2--4--4-4------------4--4-4------|
|--2----2--2------------2--2-2----------|-2-----2-2------------2--2-2------|
|---------------------------------------|----------------------------------|
|
|  E    S  S   S  S  E.      S     S  S   E     S S  S   S E.       S  S S
|---------------------------------------|----------------------------------|
|---------------------------------------|----------------------------------|
|---------------------------------------|----------------------------------|
|-------2--4---4--4----------4-----4--4-|-------2-4--4---4----------4--4-4-|
|-------2------2--2----------2-----2--2-|-------2----2---2----------2--2-2-|
|---------------------------------------|----------------------------------|


  S  S  S  S S  S  S   S  +S  S S  S    E   S S  S   E S  +S  E  a  S
|---------14-------------------------|------------------------------------|
|-0-12-15----0----10--12-(12)-0---10-|-12---0---10--12-0--(0)---10s12-----|
|---------------9---------------9----|--------9---------------9-----------|
|------------------------------------|------------------------------------|
|------------------------------------|------------------------------------|
|------------------------------------|------------------------------------|
|
| S  S  S  S E.        S   S  S E       S S S S  E.        S  S     S E
|------------------------------------|------------------------------------|
|------------------------------------|------------------------------------|
|------------------------------------|------------------------------------|
|-4--5--5--4-----------4---4--4------|--4-5-5-4------------4--4-----4-----|
|-3-----3--3-----------3---3--3------|--3---3-3------------3--3-----3-----|
|------------------------------------|------------------------------------|
|
| E     S  S S  S  E.         S S  S    E   S S  S   S E.           S S S
|------------------------------------|------------------------------------|
|------------------------------------|------------------------------------|
|------------------------------------|------------------------------------|
|-------4--5-5--4-------------4-4--4-|------4-5--5---4--------------4-4-4-|
|-------3----3--3-------------3-3--3-|------3----3---3--------------3-3-3-|
|------------------------------------|------------------------------------|


  S  S  S  S  +S  S  S   S  S E    S    S  E S +S   S   S S   S  S S  S
|---------10-(10)----------12--------|----14-----------17-------19--------|
|-0----12---------0-----15----0------|-17----0-(0)-15-----0--17----0-15---|
|---11--------------14------------16-|------------------------------------|
|------------------------------------|------------------------------------|
|------------------------------------|------------------------------------|
|------------------------------------|------------------------------------|
|
| S  S  S  S   E.        S  S S E       S  S S  S   E.        S  S S  E
|------------------------------------|------------------------------------|
|------------------------------------|------------------------------------|
|------------------------------------|------------------------------------|
|-2--4--4--4-------------4--4-4------|--2--4-4--4-------------4--4-4------|
|-2-----2--2-------------2--2-2------|--2----2--2-------------2--2-2------|
|------------------------------------|------------------------------------|
|
| E     S  S   S  S  E.       S S  S    E    S  S   S   S E.       S  S S
|------------------------------------|------------------------------------|
|------------------------------------|------------------------------------|
|------------------------------------|------------------------------------|
|-------2--4---4--4-----------4-4--4-|-------2--4---4---4----------4--4-4-|
|-------2------2--2-----------2-2--2-|-------2------2---2----------2--2-2-|
|------------------------------------|------------------------------------|


   S  S  S S  S   S S   S  S S  S  S   S  S  S S  S  S S  S S S S S
|----17------19--------17------14----|---12------10-------7-5---7---|
|-19----15-------17-0-----15-0----12-|-0----10-0-----7-0------5---5-|
|------------------------------------|------------------------------|
|------------------------------------|------------------------------|
|------------------------------------|------------------------------|
|------------------------------------|------------------------------|
|
|  S  S  S S  E.        S  S S  E      S  S  S S  E.      S S S E
|------------------------------------|------------------------------|
|------------------------------------|------------------------------|
|------------------------------------|------------------------------|
|--4--5--5-4------------4--4-4-------|-4--5--5-4----------4-4-4-----|
|--3-----3-3------------3--3-3-------|-3-----3-3----------3-3-3-----|
|------------------------------------|------------------------------|
|
|  E     S S  S   S E.       S  S  S   E     S S  S  S E.     S S S
|------------------------------------|------------------------------|
|------------------------------------|------------------------------|
|------------------------------------|------------------------------|
|--------4-5--5---4----------4--4--4-|-------4-5--5--4--------4-4-4-|
|--------3----3---3----------3--3--3-|-------3----3--3--------3-3-3-|
|------------------------------------|------------------------------|


  S S S S S  S  S S S S S S   S  S S S S  S S   S S S  S  S
|---5-----7-------5-----7---|---10-----7-------10-----12----|
|-0---3-0----5--0---3-0---5-|-0----7-0----5-0-----7-0----10-|
|---------------------------|-------------------------------|
|---------------------------|-------------------------------|
|---------------------------|-------------------------------|
|---------------------------|-------------------------------|
|
| S S S S E.      S S S E     S  S S S E.       S S S  E
|---------------------------|-------------------------------|
|---------------------------|-------------------------------|
|---------------------------|-------------------------------|
|-2-4-4-4---------4-4-4-----|-2--4-4-4----------4-4-4-------|
|-2---2-2---------2-2-2-----|-2----2-2----------2-2-2-------|
|---------------------------|-------------------------------|
|
| E S S S S  E.     S S S     E    S S S  S E.      S  S  S
|---------------------------|-------------------------------|
|---------------------------|-------------------------------|
|---------------------------|-------------------------------|
|---2-4-4-4---------4-4-4---|------2-4-4--4---------4--4--4-|
|---2---2-2---------2-2-2---|------2---2--2---------2--2--2-|
|---------------------------|-------------------------------|


  S  S  E    S   S S   S  E    S  S   S  S  S S  S   S S   S  S S  S S
|---14------17--------14------12----|---12-----------------------------|
|-0----12-------15-------12------10-|------10---12--------12------10---|
|-----------------------------------|---------------11-------11------9-|
|-----------------------------------|----------------------------------|
|-----------------------------------|----------------------------------|
|-----------------------------------|----------------------------------|
|
| S  S  S S  E.        S  S S  E      S  S  S S  E.        S  S S  E
|-----------------------------------|----------------------------------|
|-----------------------------------|----------------------------------|
|-----------------------------------|----------------------------------|
|-4--5--5-4------------4--4-4-------|-4--5--5-4------------4--4-4------|
|-3-----3-3------------3--3-3-------|-3-----3-3------------3--3-3------|
|-----------------------------------|----------------------------------|
|
| E     S S  S   S E.       S  S  S   E     S S  S   S E.       S  S S
|-----------------------------------|----------------------------------|
|-----------------------------------|----------------------------------|
|-----------------------------------|----------------------------------|
|-------4-5--5---4----------4--4--4-|-------4-5--5---4----------4--4-4-|
|-------3----3---3----------3--3--3-|-------3----3---3----------3--3-3-|
|-----------------------------------|----------------------------------|


  S  S S S E.      S S S  S S    S S  S  S  S  S  S  S Q
|-----------------------------|--------------------------------|
|-----------------------------|-10---12----10------------------|
|---11-------------9-----11---|----9----11-----9-11------------|
|------9-------------7------9-|----------------------9---------|
|-----------------------------|--------------------------------|
|-----------------------------|--------------------------------|
|
| S  S S S E.      S S S  E      S S  S  S  E.       S S S E
|-----------------------------|--------------------------------|
|-----------------------------|--------------------------------|
|-----------------------------|--------------------------------|
|-2--4-4-4---------4-4-4------|--2-4--4--4-----------4-4-4-----|
|-2----2-2---------2-2-2------|--2----2--2-----------2-2-2-----|
|-----------------------------|--------------------------------|
|
| E    S S S  S E.     S  S S    E    S  S  S  S  E.     S S S
|-----------------------------|--------------------------------|
|-----------------------------|--------------------------------|
|-----------------------------|--------------------------------|
|------2-4-4--4--------4--4-4-|-------2--4--4--4---------4-4-4-|
|------2---2--2--------2--2-2-|-------2-----2--2---------2-2-2-|
|-----------------------------|--------------------------------|


  S  S S  S  S   S S   S S S e     E.  S  +S  S S   S  +E    e
|--------------------------------|-----------------------------------|
|---10---12-----10---------------|-----------------10-(10)-----------|
|------9----11-----9--11-----9---|----11-(11)------------------------|
|------------------------9s7-----|------------9--------------9-------|
|--------------------------------|-----------------------------------|
|--------------------------------|-----------------------------------|
|
| S  S S  S  E.        S S S E     S   S   S  S E.         S S S E
|--------------------------------|-----------------------------------|
|--------------------------------|-----------------------------------|
|--------------------------------|-----------------------------------|
|-4--5-5--4------------4-4-4-----|-4---5---5--4------------4-4-4-----|
|-3----3--3------------3-3-3-----|-3-------3--3------------3-3-3-----|
|--------------------------------|-----------------------------------|
|
| E    S  S  S   S E.      S S S   E       S  S S   S   E.     S S S
|--------------------------------|-----------------------------------|
|--------------------------------|-----------------------------------|
|--------------------------------|-----------------------------------|
|------4--5--5---4---------4-4-4-|---------4--5-5---4----------4-4-4-|
|------3-----3---3---------3-3-3-|---------3----3---3----------3-3-3-|
|--------------------------------|-----------------------------------|


   S  S S  S S   S S   S  S  S  S  S   S S  S S S   S S S S S S S
|---------------12----14-------------|----------------------------|
|-12------10-------------12s10-12----|-----10---------------------|
|----11---------------------------11s|=9------9----11-----9-------|
|------------------------------------|----------------9s7-----9---|
|------------------------------------|----------------------7---7-|
|------------------------------------|----------------------------|
|
|  S  S S  S E.        S  S  S  E      S S  S S E.      S S S E
|------------------------------------|----------------------------|
|------------------------------------|----------------------------|
|------------------------------------|----------------------------|
|--2--4-4--4-----------4--4--4-------|-2-4--4-4---------4-4-4-----|
|--2----2--2-----------2--2--2-------|-2----2-2---------2-2-2-----|
|------------------------------------|----------------------------|
|
|  E    S  S S   S E.        S  S  S   E    S S S   S E.    S S S
|------------------------------------|----------------------------|
|------------------------------------|----------------------------|
|------------------------------------|----------------------------|
|-------2--4-4---4-----------4--4--4-|------2-4-4---4-------4-4-4-|
|-------2----2---2-----------2--2--2-|------2---2---2-------2-2-2-|
|------------------------------------|----------------------------|


                                    ~~~~~~
  S S S S  E    E    E.     S      +H.
|--------------------------------|--------------------------------|
|--------------------------------|--------------------------------|
|--------------------------------|--------------------------------|
|-----7s9-(9)s==7-----------9tr7-|-(9tr7)-------------------------|
|-5-5----------------------------|--------------------------------|
|--------------------------------|--------------------------------|
|
| S S S S  E.      S S  S E         S     S S S E.      S S S E
|--------------------------------|--------------------------------|
|--------------------------------|--------------------------------|
|--------------------------------|--------------------------------|
|-4-5-5-4----------4-4--4--------|--4-----5-5-4---------4-4-4-----|
|-3---3-3----------3-3--3--------|--3-------3-3---------3-3-3-----|
|--------------------------------|--------------------------------|
|
| E   S S  S  S E.      S S S       E       S S S  S E.     S S S
|--------------------------------|--------------------------------|
|--------------------------------|--------------------------------|
|--------------------------------|--------------------------------|
|-----4-5--5--4---------4-4-4----|----------4-5-5--4--------4-4-4-|
|-----3----3--3---------3-3-3----|----------3---3--3--------3-3-3-|
|--------------------------------|--------------------------------|


                                                            |-3-|
  +H                  S E    T  T   S  T T E S  T T S T T E S S S
|---------------------------12-10s|=7-----------------------------|
|---------------------------------|---10-8s5-5--------------------|
|---------------------------------|-------------7-5s4-------------|
|-(9)-----------------9-----------|-------------------5-4s2-2-4-5-|
|---------------------------------|-------------------------------|
|---------------------------------|-------------------------------|
|
|  S  S S S E.      S S S E         S  S S S E.     S S S E
|---------------------------------|-------------------------------|
|---------------------------------|-------------------------------|
|---------------------------------|-------------------------------|
|--2--4-4-4---------4-4-4---------|-2--4-4-4--------4-4-4---------|
|--2----2-2---------2-2-2---------|-2----2-2--------2-2-2---------|
|---------------------------------|-------------------------------|
|
|  E    S S S  S E.     S S  S      E    S S S  S E.    S S S
|---------------------------------|-------------------------------|
|---------------------------------|-------------------------------|
|---------------------------------|-------------------------------|
|-------2-4-4--4--------4-4--4----|------2-4-4--4-------4-4-4-----|
|-------2---2--2--------2-2--2----|------2---2--2-------2-2-2-----|
|---------------------------------|-------------------------------|


  T T T T T  T T  T S E. Q     E.  T  T E.  T  T S  S T T T T
|----------------------------|----12-10s7----------------------|
|----------------------------|-------------10--8s5--8-7-5------|
|-2s4-5-7-5--4s5--7-9--------|----------------------------7-5s=|
|----------------------------|---------------------------------|
|----------------------------|---------------------------------|
|----------------------------|---------------------------------|
|
| S S S S E.      S S S  E     S   S  S S   E.      S S S E
|----------------------------|---------------------------------|
|----------------------------|---------------------------------|
|----------------------------|---------------------------------|
|-4-5-5-4---------4-4-4------|-4---5--5-4-----------4-4-4------|
|-3---3-3---------3-3-3------|-3------3-3-----------3-3-3------|
|----------------------------|---------------------------------|
|
| E   S S S  S E.     S  S S   E      S S   S  S E.     S S S
|----------------------------|---------------------------------|
|----------------------------|---------------------------------|
|----------------------------|---------------------------------|
|-----4-5-5--4--------4--4-4-|--------4-5---5--4--------4-4-4--|
|-----3---3--3--------3--3-3-|--------3-----3--3--------3-3-3--|
|----------------------------|---------------------------------|


  T T T T T T T T T  T T T T  T S Q         S E   S +S  E    S +S  E   S
|-----------------------------------------|------------------------------|
|-----------------------------------------|------------------------------|
|-4-5-7-5-4-------------------------------|------------------------2---4-|
|-----------7-5-4-7--5-4s2----------------|-------2-(2)-4----5-(5)-------|
|--------------------------5--3-2---------|---3--------------------------|
|-----------------------------------------|------------------------------|
|
| S   S   S   S   E.            S S S E     S S S S  E.      S  S  S E
|-----------------------------------------|------------------------------|
|-----------------------------------------|------------------------------|
|-----------------------------------------|------------------------------|
|-2---4---4---4-----------------4-4-4-----|-2-4-4-4----------4--4--4-----|
|-2-------2---2-----------------2-2-2-----|-2---2-2----------2--2--2-----|
|-----------------------------------------|------------------------------|
|
| E       S   S   S    S   E.       S S S   E   S S  S  S E.       S S S
|-----------------------------------------|------------------------------|
|-----------------------------------------|------------------------------|
|-----------------------------------------|------------------------------|
|---------2---4---4----4------------4-4-4-|-----2-4--4--4----------4-4-4-|
|---------2-------2----2------------2-2-2-|-----2----2--2----------2-2-2-|
|-----------------------------------------|------------------------------|


  +H.                           +H.
|-----------------------------|-----------------------------|
|-----------------------------|-----------------------------|
|-(4)-------------------------|-(4)-------------------------|
|-----------------------------|-----------------------------|
|-----------------------------|-----------------------------|
|-----------------------------|-----------------------------|
|
|  S  S S S E.      S S S E      S  S S S E.      S S S E
|-----------------------------|-----------------------------|
|-----------------------------|-----------------------------|
|-----------------------------|-----------------------------|
|--4--5-5-4---------4-4-4-----|--4--5-5-4---------4-4-4-----|
|--3----3-3---------3-3-3-----|--3----3-3---------3-3-3-----|
|-----------------------------|-----------------------------|
|
|  E    S S S  S E.     S S S    E    S S S  S E.     S S S
|-----------------------------|-----------------------------|
|-----------------------------|-----------------------------|
|-----------------------------|-----------------------------|
|-------4-5-5--4--------4-4-4-|-------4-5-5--4--------4-4-4-|
|-------3---3--3--------3-3-3-|-------3---3--3--------3-3-3-|
|-----------------------------|-----------------------------|


   >
  +H                  E.      S
|-------------------------------|
|-------------------------------|
|-(4)------------------------14-|
|-------------------------------|
|-------------------------------|
|-------------------------------|
|
|  S  S S S E.      S S  S E
|-------------------------------|
|-------------------------------|
|-------------------------------|
|--2--4-4-4---------4-4--4------|
|--2----2-2---------2-2--2------|
|-------------------------------|
|
|  E    S S S  S E.      S S  S
|-------------------------------|
|-------------------------------|
|-------------------------------|
|-------2-4-4--4---------4-4--4-|
|-------2---2--2---------2-2--2-|
|-------------------------------|


   \1.5/  \1.5/  \1.5/  \1.5/  \1.5/  |
   S      S      S      S      S      S E    Q
|----------------------------------------------------|
|----------------------------------------------------|
|-14-----14-----14-----14-----14p====11--------------|
|----------------------------------------------------|
|----------------------------------------------------|
|----------------------------------------------------|
|
|  S      S      S      S      E.          S S S E
|----------------------------------------------------|
|----------------------------------------------------|
|----------------------------------------------------|
|--2------4------4------4------------------4-4-4-----|
|--2-------------2------2------------------2-2-2-----|
|----------------------------------------------------|
|
|  E             S      S      S      S E.     S S S
|----------------------------------------------------|
|----------------------------------------------------|
|----------------------------------------------------|
|----------------2------4------4------4--------4-4-4-|
|----------------2-------------2------2--------2-2-2-|
|----------------------------------------------------|


        \1.5/  \1.5/  \1.5/  \1.5/                \1.5/
  S  T  T      S      S      S      S  E E.    T  T
|-------------------------------------------------------|
|-------------------------------------------------------|
|---14-14-----14-----14-----14p====11---------14-14-----|
|-------------------------------------------------------|
|-------------------------------------------------------|
|-------------------------------------------------------|
|
| S  S  S      S      E.               S S  S  E
|-------------------------------------------------------|
|-------------------------------------------------------|
|-------------------------------------------------------|
|-4--5--5------4-----------------------4-4--4-----------|
|-3-----3------3-----------------------3-3--3-----------|
|-------------------------------------------------------|
|
| E     S      S      S      S      E.      S  S  S
|-------------------------------------------------------|
|-------------------------------------------------------|
|-------------------------------------------------------|
|-------4------5------5------4--------------4--4--4-----|
|-------3-------------3------3--------------3--3--3-----|
|-------------------------------------------------------|


   \1.5/     \1.5/  \1.5/  \1.5/  \1.5/  \1.5/  \1.5/  \1.5/  \1.5/  \1.5/
   S      S  S      S      S      S      S      S      S      S      S      S
|-----------------------------------------------------------------------------|
|-----------------------------------------------------------------------------|
|-14s====16-16-----16-----16-----16-----16-----16-----16-----16-----16p====11-|
|-----------------------------------------------------------------------------|
|-----------------------------------------------------------------------------|
|-----------------------------------------------------------------------------|
|
|  S      S  S      S      E.                   S      S      S      E
|-----------------------------------------------------------------------------|
|-----------------------------------------------------------------------------|
|-----------------------------------------------------------------------------|
|--4------5--5------4---------------------------4------4------4---------------|
|--3---------3------3---------------------------3------3------3---------------|
|-----------------------------------------------------------------------------|
|
|  E         S      S      S      S      E.                   S      S      S
|-----------------------------------------------------------------------------|
|-----------------------------------------------------------------------------|
|-----------------------------------------------------------------------------|
|------------4------5------5------4---------------------------4------4------4-|
|------------3-------------3------3---------------------------3------3------3-|
|-----------------------------------------------------------------------------|


   ~~
   Q       Q         E.      S
|------------------------------|
|------------------------------|
|-11------------------------14-|
|------------------------------|
|------------------------------|
|------------------------------|
|
|  S S S S E.      S S  S E
|------------------------------|
|------------------------------|
|------------------------------|
|--2-4-4-4---------4-4--4------|
|--2---2-2---------2-2--2------|
|------------------------------|
|
|  E   S S S  S E.      S S  S
|------------------------------|
|------------------------------|
|------------------------------|
|------2-4-4--4---------4-4--4-|
|------2---2--2---------2-2--2-|
|------------------------------|


   \1.5/  \1.5/  \1.5/  \1.5/  \1.5/     \1.5/     \1.5/   \1.5/
   S      S      S      S      S      S  S      S  S     S E
|------------------------------------------------------------------|
|------------------------------------------------------------------|
|-14-----14-----14-----14-----14-----12-12s====11-11s====9-9-------|
|------------------------------------------------------------------|
|------------------------------------------------------------------|
|------------------------------------------------------------------|
|
|  S      S      S      S      E.               S  S     S E
|------------------------------------------------------------------|
|------------------------------------------------------------------|
|------------------------------------------------------------------|
|--2------4------4------4-----------------------4--4-----4---------|
|--2-------------2------2-----------------------2--2-----2---------|
|------------------------------------------------------------------|
|
|  E             S      S      S      S  E.              S S     S
|------------------------------------------------------------------|
|------------------------------------------------------------------|
|------------------------------------------------------------------|
|----------------2------4------4------4------------------4-4-----4-|
|----------------2-------------2------2------------------2-2-----2-|
|------------------------------------------------------------------|


   ~~~
  +E    E   Q         E.      S
|-------------------------------|
|-------------------------------|
|-(9)------------------------12-|
|-------------------------------|
|-------------------------------|
|-------------------------------|
|
|  S  S S S E.      S S  S E
|-------------------------------|
|-------------------------------|
|-------------------------------|
|--4--5-5-4---------4-4--4------|
|--3----3-3---------3-3--3------|
|-------------------------------|
|
|  E    S S S  S E.      S S  S
|-------------------------------|
|-------------------------------|
|-------------------------------|
|-------4-5-5--4---------4-4--4-|
|-------3---3--3---------3-3--3-|
|-------------------------------|


   \1.5/     \1.5/   \1.5/   \1.5/ \1.5/ \1.5/ \1.5/ \1.5/ \1.5/
   S      S  S     S S     S S     S     S     S     S     S
|----------------------------------------------------------------|
|----------------------------------------------------------------|
|-12-----11-11s====9-9s====7-7-----7-----7-----7-----7-----7-----|
|----------------------------------------------------------------|
|----------------------------------------------------------------|
|----------------------------------------------------------------|
|
|  S      S  S     S E.            S     S     S     E
|----------------------------------------------------------------|
|----------------------------------------------------------------|
|----------------------------------------------------------------|
|--4------5--5-----4---------------4-----4-----4-----------------|
|--3---------3-----3---------------3-----3-----3-----------------|
|----------------------------------------------------------------|
|
|  E         S     S S     S E.                S     S     S
|----------------------------------------------------------------|
|----------------------------------------------------------------|
|----------------------------------------------------------------|
|------------4-----5-5-----4-------------------4-----4-----4-----|
|------------3-------3-----3-------------------3-----3-----3-----|
|----------------------------------------------------------------|


  \1.5/
                 ~~~~
  S     E    S  +Q         E.      S
|------------------------------------|
|------------------------------------|
|-7-----9s==11-(11)---------------14-|
|------------------------------------|
|------------------------------------|
|------------------------------------|
|
| S     S S  S   E.      S S  S E
|------------------------------------|
|------------------------------------|
|------------------------------------|
|-2-----4-4--4-----------4-4--4------|
|-2-------2--2-----------2-2--2------|
|------------------------------------|
|
| E       S  S   S  S E.      S S  S
|------------------------------------|
|------------------------------------|
|------------------------------------|
|---------2--4---4--4---------4-4--4-|
|---------2------2--2---------2-2--2-|
|------------------------------------|


   \1.5/     \1.5/     \1.5/   \1.5/
                                       ~
   S      S  S      S  S     S E       E    E
|-----------------------------------------------|
|-----------------------------------------------|
|-14-----12-12s====11-11s====9-9-------9---11---|
|-----------------------------------------------|
|-----------------------------------------------|
|-----------------------------------------------|
|
|  S      S  S      S  E.            S S S  E
|-----------------------------------------------|
|-----------------------------------------------|
|-----------------------------------------------|
|--2------4--4------4----------------4-4-4------|
|--2---------2------2----------------2-2-2------|
|-----------------------------------------------|
|
|  E         S      S  S     S E.        S  S S
|-----------------------------------------------|
|-----------------------------------------------|
|-----------------------------------------------|
|------------2------4--4-----4-----------4--4-4-|
|------------2---------2-----2-----------2--2-2-|
|-----------------------------------------------|


                          \1.5/
  Q     Q      S       S  S      S
|----------------------------------|
|----------------------------------|
|---------------------12-12-----12-|
|----------------------------------|
|----------------------------------|
|----------------------------------|
|
| S S S S E.      S S  S  E
|----------------------------------|
|----------------------------------|
|----------------------------------|
|-4-5-5-4---------4-4--4-----------|
|-3---3-3---------3-3--3-----------|
|----------------------------------|
|
| E   S S S  S E.      S  S      S
|----------------------------------|
|----------------------------------|
|----------------------------------|
|-----4-5-5--4---------4--4------4-|
|-----3---3--3---------3--3------3-|
|----------------------------------|


   \1.5/     \1.5/   \1.5/   \1.5/
   S      S  S     S S     S S     S  S S S  S
|----------------------------------------------|
|----------------------------------------------|
|-12-----11-11s====9-9s====7-7-------/9-7-9s11-|
|----------------------------------------------|
|----------------------------------------------|
|----------------------------------------------|
|
|  S      S  S     S E.            S  S S E
|----------------------------------------------|
|----------------------------------------------|
|----------------------------------------------|
|--4------5--5-----4---------------4--4-4------|
|--3---------3-----3---------------3--3-3------|
|----------------------------------------------|
|
|  E         S     S S     S E.         S S  S
|----------------------------------------------|
|----------------------------------------------|
|----------------------------------------------|
|------------4-----5-5-----4------------4-4--4-|
|------------3-------3-----3------------3-3--3-|
|----------------------------------------------|


                                   \1.5/
          ~~
  S  S S  S  +E    E    E.      T  T
|----------------------------------------|
|----------------------------------------|
|-9-11-9-11-(11)---------------14-14-----|
|----------------------------------------|
|----------------------------------------|
|----------------------------------------|
|
| S  S S  S   E.      S S  S E
|----------------------------------------|
|----------------------------------------|
|----------------------------------------|
|-2--4-4--4-----------4-4--4-------------|
|-2----2--2-----------2-2--2-------------|
|----------------------------------------|
|
| E    S  S   S  S E.      S S  S
|----------------------------------------|
|----------------------------------------|
|----------------------------------------|
|------2--4---4--4---------4-4--4--------|
|------2------2--2---------2-2--2--------|
|----------------------------------------|


   \1.5/     \1.5/     \1.5/     \1.5/  \1.5/  \1.5/     \1.5/
   S      S  S      S  S      S  S      S      S      S  S      S
|-----------------------------------------------------------------|
|-----------------------------------------------------------------|
|-14s====16-16s====12-12s====14-14-----14-----14s====12-12s====11-|
|-----------------------------------------------------------------|
|-----------------------------------------------------------------|
|-----------------------------------------------------------------|
|
|  S      S  S      S  E.               S      S      S  E
|-----------------------------------------------------------------|
|-----------------------------------------------------------------|
|-----------------------------------------------------------------|
|--2------4--4------4-------------------4------4------4-----------|
|--2---------2------2-------------------2------2------2-----------|
|-----------------------------------------------------------------|
|
|  E         S      S  S      S  E.                   S  S      S
|-----------------------------------------------------------------|
|-----------------------------------------------------------------|
|-----------------------------------------------------------------|
|------------2------4--4------4-----------------------4--4------4-|
|------------2---------2------2-----------------------2--2------2-|
|-----------------------------------------------------------------|


   \1.5/     \1.5/
                   ~~
   S     E   S     E    E    E.      S
|--------------------------------------|
|--------------------------------------|
|-11s====9---9-----9----------------12-|
|--------------------------------------|
|--------------------------------------|
|--------------------------------------|
|
|  S     S S S     E.      S S  S E
|--------------------------------------|
|--------------------------------------|
|--------------------------------------|
|--4-----5-5-4-------------4-4--4------|
|--3-------3-3-------------3-3--3------|
|--------------------------------------|
|
|  E       S S     S  S E.      S S  S
|--------------------------------------|
|--------------------------------------|
|--------------------------------------|
|----------4-5-----5--4---------4-4--4-|
|----------3-------3--3---------3-3--3-|
|--------------------------------------|


   \1.5/     \0.5/   \1.5/   \1.5/ \1.5/ \1.5/ \1.5/ \1.5/ \1.5/
   S      S  S     S S     S S     S     S     S     S     S
|----------------------------------------------------------------|
|----------------------------------------------------------------|
|-12-----11-11s====9-9s====7-7-----7-----7-----7-----7-----7-----|
|----------------------------------------------------------------|
|----------------------------------------------------------------|
|----------------------------------------------------------------|
|
|  S      S  S     S E.            S     S     S     E
|----------------------------------------------------------------|
|----------------------------------------------------------------|
|----------------------------------------------------------------|
|--4------5--5-----4---------------4-----4-----4-----------------|
|--3---------3-----3---------------3-----3-----3-----------------|
|----------------------------------------------------------------|
|
|  E         S     S S     S E.                S     S     S
|----------------------------------------------------------------|
|----------------------------------------------------------------|
|----------------------------------------------------------------|
|------------4-----5-5-----4-------------------4-----4-----4-----|
|------------3-------3-----3-------------------3-----3-----3-----|
|----------------------------------------------------------------|


  \1.5/
             ~~~~~~~
  S     E    S  +Q         E.      S
|------------------------------------|
|---------------------------------15-|
|-7-----9s==11-(11)------------------|
|------------------------------------|
|------------------------------------|
|------------------------------------|
|
| S     S S  S   E.      S S  S E
|------------------------------------|
|------------------------------------|
|------------------------------------|
|-2-----4-4--4-----------4-4--4------|
|-2-------2--2-----------2-2--2------|
|------------------------------------|
|
| E       S  S   S  S E.      S S  S
|------------------------------------|
|------------------------------------|
|------------------------------------|
|---------2--4---4--4---------4-4--4-|
|---------2------2--2---------2-2--2-|
|------------------------------------|


   \1.5/     \1.5/     \1.5/     \1.5/     \1.5/   \1.5/
   S      S  S      S  S      S  S      S  S     S S     S
|----------------------------------------------------------|
|-15-------------------------------------------------------|
|--------16-16s====14-14s====12-12s====11-11s====9-9s====7-|
|----------------------------------------------------------|
|----------------------------------------------------------|
|----------------------------------------------------------|
|
|  S      S  S      S  E.               S  S     S E
|----------------------------------------------------------|
|----------------------------------------------------------|
|----------------------------------------------------------|
|--2------4--4------4-------------------4--4-----4---------|
|--2---------2------2-------------------2--2-----2---------|
|----------------------------------------------------------|
|
|  E         S      S  S      S  E.              S S     S
|----------------------------------------------------------|
|----------------------------------------------------------|
|----------------------------------------------------------|
|------------2------4--4------4------------------4-4-----4-|
|------------2---------2------2------------------2-2-----2-|
|----------------------------------------------------------|


  ~
  Q       Q         E.      S
|-----------------------------|
|--------------------------17-|
|-9---------------------------|
|-----------------------------|
|-----------------------------|
|-----------------------------|
|
| S S S S E.      S S  S E
|-----------------------------|
|-----------------------------|
|-----------------------------|
|-4-5-5-4---------4-4--4------|
|-3---3-3---------3-3--3------|
|-----------------------------|
|
| E   S S S  S E.      S S  S
|-----------------------------|
|-----------------------------|
|-----------------------------|
|-----4-5-5--4---------4-4--4-|
|-----3---3--3---------3-3--3-|
|-----------------------------|


   \1.5/  \1.5/  \1.5/     \1.5/     \1.5/     \1.5/     \1.5/
   S      S      S      S  S      S  S      S  S      S  S      S
|-----------------------------------------------------------------|
|-17-----17-----17-------------------------15-15------------------|
|----------------------16-16p====14-14----------------------------|
|----------------------------------------------------16-16-----14-|
|-----------------------------------------------------------------|
|-----------------------------------------------------------------|
|
|  S      S      S      S  E.               S  S      S  E
|-----------------------------------------------------------------|
|-----------------------------------------------------------------|
|-----------------------------------------------------------------|
|--4------5------5------4-------------------4--4------4-----------|
|--3-------------3------3-------------------3--3------3-----------|
|-----------------------------------------------------------------|
|
|  E             S      S  S      S  E.               S  S      S
|-----------------------------------------------------------------|
|-----------------------------------------------------------------|
|-----------------------------------------------------------------|
|----------------4------5--5------4-------------------4--4------4-|
|----------------3---------3------3-------------------3--3------3-|
|-----------------------------------------------------------------|


   \1.5/     \1.5/
                      ~~~
   S      S  E        Q         Q
|---------------------------------------|
|---------------------------------------|
|--------16-16-------16-----------------|
|-14------------------------------------|
|---------------------------------------|
|---------------------------------------|
|
|  S      S  S     S  E.      S S S E
|---------------------------------------|
|---------------------------------------|
|---------------------------------------|
|--2------4--4-----4----------4-4-4-----|
|--2---------2-----2----------2-2-2-----|
|---------------------------------------|
|
|  E         S     S  S  S E.     S S S
|---------------------------------------|
|---------------------------------------|
|---------------------------------------|
|------------2-----4--4--4--------4-4-4-|
|------------2--------2--2--------2-2-2-|
|---------------------------------------|


  E   E    S  E   S S  E   S   S  S  S  S +S   E.     E    S  S
|----------------------------|----------------------------------|
|-0----------10-------12---0-|-0-17-17--0-(0)-10------0---12-12-|
|----------------------------|----------------------------------|
|----------------------------|----------------------------------|
|----------------------------|----------------------------------|
|----------------------------|----------------------------------|
|
| Gtrs I, II
| S S S  S S  S S S S  S E     S  S  S  S  S   S  S S S S  E
|------------------------7---|-----------------------------7----|
|---------------7------7-----|--------------------7-----7-------|
|-----9-------9-----9--------|-------9---------9------9---------|
|---7------7------7----------|----7--------7--------7-----------|
|-------10-------------------|---------10-----------------------|
|-8--------------------------|-8--------------------------------|


   S S S  E   S S  E   S S  S   S S S  E   S S  E   S S  S
|-----------------------------|----------------------------|
|------0-10---0-0-12---0-0-17-|-0-0-0-10---0-0-12---0-0-17-|
|-11-9------------------------|----------------------------|
|-----------------------------|----------------------------|
|-----------------------------|----------------------------|
|-----------------------------|----------------------------|
|
|  S S S  S S S S  S S S E      S S S  S S S S  S S S E
|------------------------7----|-----------------------7----|
|---------------7------7------|--------------7------7------|
|------9------9------9--------|-----9------9------9--------|
|----7------7------7----------|---7------7------7----------|
|---------9-------------------|--------9-------------------|
|--7--------------------------|-7--------------------------|


  S S S  E   S S  E   S S  S   S S S  E   S S  E   S S  S

|----------------------------|----------------------------|
|-0-0-0-10---0-0-12---0-0-17-|-0-0-0-10---0-0-12---0-0-17-|
|----------------------------|----------------------------|
|----------------------------|----------------------------|
|----------------------------|----------------------------|
|----------------------------|----------------------------|
|
| S S S  S S S S  S S S E      S S S  S S S S  S S S E
|-----------------------7----|-----------------------7----|
|--------------7------7------|--------------7------7------|
|-----9------9------9--------|-----9------9------9--------|
|---7------7------7----------|---7------7------7----------|
|-------10-------------------|-------10-------------------|
|-8--------------------------|-8--------------------------|


  S S S  E   S S  E   S S  S   S  S S  S  S S  S S  S  S S S
|----------------------------|-------------------------------|
|-0-0-0-10---0-0-12---0-0-17-|-0-10-0-15-17-0-10-0-12-10-0-8-|
|----------------------------|-------------------------------|
|----------------------------|-------------------------------|
|----------------------------|-------------------------------|
|----------------------------|-------------------------------|
|
| S S S  S S S S  S S S E      S  S S  S  S S  S S  S  S E
|-----------------------7----|---------------------------7---|
|--------------7------7------|-----------------7-------7-----|
|-----9------9------9--------|------9-------9-------9--------|
|---7------7------7----------|----7-------7------7-----------|
|--------9-------------------|---------9---------------------|
|-7--------------------------|-7-----------------------------|


    Gtr VI
                       ~
    S S S  S +Q        E   E   W
||---------------------------|------------------------|
||o-0-7-0--5-(5)-------5-----|------------------------|
||---------------------------|------------------------|
||---------------------------|------------------------|
||o--------------------------|------------------------|
||---------------------------|------------------------|
|
|   Gtrs I, II
|   S S S  S  S  S S S S S E   S S S  S S S S S S S E
||-------------------------7-|----------------------7-|
||o----------------7-----7---|--------------7-----7---|
||------9--------9-----9-----|-----9------9-----9-----|
||----7-------7------7-------|---7------7-----7-------|
||o-------10-----------------|-------10---------------|
||--8------------------------|-8----------------------|


  Q       Q       E.      S   S  S S  S  S S  S S  S  S S S
|---------------------------|-------------------------------|
|------------------------17-|-0-19-0-15-17-0-10-0-12-10-0-8-|
|---------------------------|-------------------------------|
|---------------------------|-------------------------------|
|---------------------------|-------------------------------|
|---------------------------|-------------------------------|
|
| S S S S S S S S S  S E      S  S S  S  S S  S S  S  S E
|----------------------7----|---------------------------7---|
|-------------7------7------|-----------------7-------7-----|
|-----9-----9-----9---------|------9-------9-------9--------|
|---7-----7-----7-----------|----7-------7------7-----------|
|-------9-------------------|---------9---------------------|
|-7-------------------------|-7-----------------------------|


                      ~~~
  S S S  S +Q        +E    S  S   S  S S  S  S E.     Q
|-------------------------------|----------------------------|
|-0-7-0--5-(5)-------(5)-----17-|-0-19-0-15-17---------------|
|-------------------------------|----------------------------|
|-------------------------------|----------------------------|
|-------------------------------|----------------------------|
|-------------------------------|----------------------------|
|
| S S S  S  S  S S S  S  S E      S  S S  S  S S  S S S S E
|--------------------------7----|-------------------------7--|
|----------------7-------7------|-----------------7-----7----|
|-----9--------9------9---------|------9-------9------9------|
|---7-------7------7------------|----7-------7------7--------|
|-------10----------------------|--------10------------------|
|-8-----------------------------|-8--------------------------|


                              1.
  Q       Q       E.      S   S  S S  S  S S  S S  S  S S S
|---------------------------|--------------------------------||
|------------------------17-|-0-19-0-15-17-0-10-0-12-10-0-8-o||
|---------------------------|--------------------------------||
|---------------------------|--------------------------------||
|---------------------------|-------------------------------o||
|---------------------------|--------------------------------||
|
| S S S S S S S S S  S E      S  S S  S  S S  S S  S  S E
|----------------------7----|---------------------------7----||
|-------------7------7------|-----------------7-------7-----o||
|-----9-----9-----9---------|------9-------9-------9---------||
|---7-----7-----7-----------|----7-------7------7------------||
|-------9-------------------|---------9---------------------o||
|-7-------------------------|-7------------------------------||


  2.
                                                      ~~~
  S  S S  S  S S  S S  S  S S S   S S S  S +Q        +E    S  S
|-------------------------------|-------------------------------|
|-0-19-0-15-17-0-10-0-12-10-0-8-|-0-7-0--5-(5)-------(5)-----17-|
|-------------------------------|-------------------------------|
|-------------------------------|-------------------------------|
|-------------------------------|-------------------------------|
|-------------------------------|-------------------------------|
|
| S  S S  S  S S  S S  S  S E     S S S  S  S  S S S  S  S E
|---------------------------7---|--------------------------7----|
|-----------------7-------7-----|----------------7-------7------|
|------9-------9-------9--------|-----9--------9------9---------|
|----7-------7------7-----------|---7-------7------7------------|
|--------10---------------------|-------10----------------------|
|-8-----------------------------|-8-----------------------------|


  S  S S  S  S E.     Q
|---------------------------|
|-0-19-0-15-17--------------|
|---------------------------|
|---------------------------|
|---------------------------|
|---------------------------|
|
| Gtrs I, II
| S  S S  S  S S  S S S S E
|-------------------------7-|
|-----------------7-----7---|
|------9-------9------9-----|
|----7-------7------7-------|
|---------9-----------------|
|-7-------------------------|


                                                  ~~~
    S  S S  S  S S  S S  S  S S S   S S S S +Q   +E  S  S   5x
||--------------------------------|-------------------------||
||o-0-19-0-15-17-0-10-0-12-10-0-8-|-0-7-0-5-(5)--(5)---17--o||
||--------------------------------|-------------------------||
||--------------------------------|-------------------------||
||o-------------------------------|------------------------o||
||--------------------------------|-------------------------||
|
|   W                               W                       5x
||--------------------------------|-------------------------||
||o-------------------------------|------------------------o||
||--------------------------------|-------------------------||
||--------------------------------|-------------------------||
||o-------------------------------|------------------------o||
||--------------------------------|-------------------------||


Duration Legend
---------------
W - whole; H - half; Q - quarter; E - 8th; S - 16th; T - 32nd; X - 64th; a - acciaccatura
+ - note tied to previous; . - note dotted; .. - note double dotted
Uncapitalized letters represent notes that are staccato (1/2 duration)
Irregular groupings are notated above the duration line
Duration letters will always appear directly above the note/fret number it represents the
duration for.  Duration letters with no fret number below them represent rests.  Multi-
bar rests are notated in the form Wxn, where n is the number of bars to rest for.  Low
melody durations appear below the staff

Tablature Legend
----------------
 h   - hammer-on
 p   - pull-off
 b   - bend
 pb  - pre-bend
 r   - bend release (if no number after the r, then release immediately)
 /\  - slide into or out of (from/to "nowhere")
 s   - legato slide
 S   - shift slide
  - natural harmonic
[n]  - artificial harmonic
n(n) - tapped harmonic
 ~   - vibrato
 tr  - trill
 T   - tap
 TP  - trem. picking
 PM  - palm muting
\n/  - tremolo bar dip; n = amount to dip
 \n  - tremolo bar down
 n/  - tremolo bar up
/n\  - tremolo bar inverted dip
 =   - hold bend; also acts as connecting device for hammers/pulls
 <>  - volume swell (louder/softer)
 x   - on rhythm slash represents muted slash
 o   - on rhythm slash represents single note slash

Misc Legend
-----------
 |  - bar
||  - double bar
||o - repeat start
o|| - repeat end
*|  - double bar (ending)
 :  - bar (freetime)
 $  - Segno
 &  - Coda
Tempo markers -  = BPM(8/16=s8/s16), where s8 = swing 8ths, s16 = swing 16ths


Joe Satriani albums
2004 Is There Love in Space?
2002 Strange Beautiful Music
2000 Engines of Creation
1998 Crystal Planet
1995 Joe Satriani
1993 Time Machine
1992 The Extremist
1989 Flying in a Blue Dream
1987 Surfing With the Alien
1986 Not of This Earth
Engines of Creation tabs
01Devil's Slide tabbass tab
03Borg Sex tabbass tab
04Until We Say Goodbye tabbass tab
06Champagne tabbass tab
07Clouds Race Across the Sky tabbass tab
10Slow and Easy tabbass tab
11Engines of Creation tabbass tab

 

1