Search tabs:
Browse artists: 0-9 | A | B | C | D | E | F | G | H | I | J | K | L | M | N | O | P | Q | R | S | T | U | V | W | X | Y | Z
/ Joe Satriani / Flying in a Blue Dream (1989) / One Big Rush guitar tab

ONE BIG RUSH
                           As recorded by Joe Satriani
                  (From the 1989 Album FLYING IN A BLUE DREAM)

Words by None

Music by Joe Satriani
Arranged by Joe Satriani
Transcribed by Carl Culpepper

         Em/B
      7 7 9 9 8 7

Gtr I (E A D G B E) - 'Rhythm (L)'
Gtr II (E A D G B E) - 'Rhythm (R)'
Gtr III (E A D G B E) - 'Lead'
Gtr IV (E A D G B E) - 'Guitar scrapes'
Gtr V (E A D G B E) - 'Lead Guitar'
Gtr VI (E A D G B E) - 'Reverb'

 Intro
  Q=172
 4/4
  Gtr I        Gtr IV           Gtr I
               TP         TP TP
  Wx2          W          Q  Q   H
|------------|----------|----------------|
|------------|----------|----------------|
|------------|----------|----------------|
|------------|-x\-------|-x\-x\----------|
|------------|-x\-------|-x\-x\----------|
|------------|----------|-------19\------|
|
| Gtr IV
|              TP         TP TP  TP TP
| Wx2          W          Q  Q   Q  Q
|------------|----------|----------------|
|------------|----------|----------------|
|------------|----------|----------------|
|------------|-xS=======|=xS=xS==xS=x\---|
|------------|-xS=======|=xS=xS==xS=x\---|
|------------|----------|----------------|


     Em D/Em  D                A5                        Bm7        Em
  Gtrs I, II
              PM                                 PM        ~~~~~~
  Q  Q  E E E E   Q  E E E E E E   +Q   Q  E E E E   E E E E +Q   E  a  E
|---------------|----------------|-----------------|----------------------|
|----8--7-8-----|----8-7---------|-----------------|----------------------|
|----9--7-9-----|-7--7-7---7---9-|-(9)--9--7-9-----|-9-7---7-(7)--7-(7)s9-|
|----9--7-9-----|-7--7-7---7---7-|-(7)--7--7-7-----|-7-7---7-(7)--7-(7)s9-|
|-----------x-5-|-5--------5---0-|-(0)-----------0-|----------------------|
|-0-------------|----------------|-----------------|-----7----------------|


         D/Em  D                A5
  E E Q  E E E E   Q  E E E E E  E
|-----7----------|-----------------|
|-----8--7-8-----|-7--8-7-------10-|
|-----9--7-9-----|-7--7-7---7----9-|
|-----9--7-9-----|-7--7-7---7----7-|
|--------------5-|-5--------5----0-|
|-0-0------------|-----------------|


                          Bm7
   +Q   E E +E  E  E  E    E  E  E  E  +E  E E  E
|-----------------------|--------------------------|
|-(10)----------8-------|-10-10-10-(7)-(7)-7-------|
|--(9)--9-7-(7)-9-----x-|--7--7--7--7--(7)-7-------|
|--(7)--7-7-(7)-7--7--7-|-----------7--(7)-7-------|
|--(0)------------(0)---|-----------------------7--|
|-----------------------|----------------------(0)-|


        D/Em  D                 A5                       Bm7        Em
              PM                         PM      PM      PM       PM|
  Q  Q  E E E E   E E E E e E E E   Q  E E E E E E   E E E E +Q   E E
|---------------|-----------------|----------------|------------------|
|----8--7-8-----|-7-7-8-7-8-7-----|----------------|-------7-(7)------|
|----9--7-9-----|-7-7-7-7-7-7-----|-9--9---7-9-----|-9-7---7-(7)------|
|----9--7-9-----|-7-7-7-7-7-7---7-|-7--7---7-7-x---|-7-7---7-(7)------|
|-----------x-5-|---------------0-|-0----0-------0-|--------------x---|
|-0-------------|-----------------|----------------|-----7--------x-0-|


         D/Em  D                A5
  PM|          PM
  E E Q  E E E E   Q  E E e E E E
|----------------|----------------|
|-----8--7-8-----|-7--8-7-8-7-----|
|-----9--7-9-x---|-7--7-7-7-7-----|
|-----9--7-9-x---|-7--7-7-7-7---7-|
|--------------5-|--------------0-|
|-0-0------------|----------------|


                       Bm7                  Em
  +E  E  Q   E E E E    E  E  E  E  +E  E E  E
|--------------------|--------------------------|
|-------(8)----------|-10-10-10-----------------|
|-----9--9---7-9---7-|--7--7--7-[7]-(7)-7-------|
|-(7)-7--7---7-7-7-7-|--x---------------7-------|
|-(0)-0--------------|------------------7----7--|
|--------------------|----------------------(0)-|


 Verse Melody
             D/Em     D                                   A5
  Gtrs III, V, VI
                   ~~~~~~~~~~~~~
  Q   H           +Q       +Q    E  E    E  a      +E   E  E
|-----------------------|------------------------------------|
|-----------------------|------------------------------------|
|----14b16=======(14)---|-(14)r----14b16---14pb16r(14)p12-14-|
|-----------------------|------------------------------------|
|-----------------------|------------------------------------|
|-----------------------|------------------------------------|
|
| Gtrs I, II
|                     PM
| Q   Q      E E   E  E     Q    E  E    E          E   E  E
|-----------------------|------------------------------------|
|-----8------7-8--------|--------8--7------------------------|
|-----9------7-9--------|---7----7--7---------------7------9-|
|-----9------7-9--------|---7----7--7---------------7------7-|
|------------------x--5-|---5-----------------------5------0-|
|-0---------------------|------------------------------------|


                                      Bm7             Em
                                           |---3----|
   +Q.     +E      +E   +E  Q     H        Q   q    q
|-------------------------------|----------------------------|
|-------------------------------|----------------------------|
|-(14)----(14)b16-(14)-(14)-----|------------------12--------|
|-------------------------------|-------------14-------------|
|-------------------------------|----------------------------|
|-------------------------------|----------------------------|
|
|                             PM        ~~~~~~
|  +Q   Q           E    E  E E   E E E E +Q     E     a  E
|-------------------------------|----------------------------|
|-------------------------------|----------------------------|
|--(9)--9-----------7----9------|-9-7---7-(7)----7----(7)s9--|
|--(7)--7-----------7----7------|-7-7---7-(7)----7----(7)s9--|
|--(0)------------------------0-|----------------------------|
|-------------------------------|-----7----------------------|


                   D/E    Em   D                              A5
                             ~~~~~~~~~~~
   |------3------|
   q    q        q  S  E.    Q      +E  E E  e  a  E  E  a  E  E
|--------------------------------|-------------------------------|
|--------------------------------|-------------------------------|
|-14---14pb15---14-12------------|-------------------------------|
|---------------------14----14---|-(14)--------12s14s12----------|
|--------------------------------|----------14----------12s14s12-|
|--------------------------------|-------------------------------|
|
|  E E        Q     E     E  E E     Q    E  E     E  E     E  E
|-------------7------------------|-------------------------------|
|-------------8-----7-----8------|---7----8--7----------------10-|
|-------------9-----7-----9------|---7----7--7--------7--------9-|
|-------------9-----7-----9------|---7----7--7--------7--------7-|
|------------------------------5-|---5----------------5--------0-|
|--0-0---------------------------|-------------------------------|


                            Bm7                     Em
     ~~~~~~
    +W                       +Q       Q      H
|-------------------------|-----------------------------|
|-------------------------|-----------------------------|
|-------------------------|-----------------------------|
|-------------------------|-----------------------------|
|-([12])------------------|-(12)\-----------------------|
|-------------------------|-----------------------------|
|
|   +Q    E E +E  E  E  E     E    E  E  E  +E  E E  E
|-------------------------|-----------------------------|
|--(10)-----------8-------|--10---10-10-(7)-(7)-7-------|
|---(9)---9-7-(7)-9-----x-|---7----7--7--7--(7)-7-------|
|---(7)---7-7-(7)-7--7--7-|--------------7--(7)-7-------|
|---(0)-------------(0)---|--------------------------7--|
|-------------------------|-------------------------(0)-|


             D/Em     D                         A5
                   ~~~~~~~~~~~~~
   H.             +Q       +Q    E  E    E  E E  E
|-----------------------|--------------------------|
|-----------------------|--------------------------|
|-14b16==========(14)---|-(14)r----14b16---14---14-|
|-----------------------|--------------------------|
|-----------------------|--------------------------|
|-----------------------|--------------------------|
|
|                     PM
|  Q      Q  E E   E  E     Q    E  E    E  E E  E
|-----------------------|--------------------------|
|---------8--7-8--------|--------8--7--------------|
|---------9--7-9--------|---7----7--7-------7----9-|
|---------9--7-9--------|---7----7--7-------7----7-|
|------------------x--5-|---5---------------5----0-|
|--0--------------------|--------------------------|


                                                  Bm7             Em
                                                       |---3----|
    S       +S   +E       +E   +E   H         H        Q   q    q
|-------------------------------------------|----------------------------|
|-------------------------------------------|----------------------------|
|-[14]b16==(14)r(14)b17==(14)-(14)r---------|------------------12--------|
|-------------------------------------------|-------------14-------------|
|-------------------------------------------|----------------------------|
|-------------------------------------------|----------------------------|
|
|                                         PM        ~~~~~~
|  +Q                      Q        E E E E   E E E E +Q     E     a  E
|-------------------------------------------|----------------------------|
|-------------------------------------------|----------------------------|
|--(9)---------------------9--------7-9-----|-9-7---7-(7)----7----(7)s9--|
|--(7)---------------------7--------7-7-----|-7-7---7-(7)----7----(7)s9--|
|--(0)------------------------------------0-|----------------------------|
|-------------------------------------------|-----7----------------------|


                    D/E    Em     D                               A5
                               ~~~~
   |------3-------|
   q    q         q  S  E.    +Q       +E   E      +Q     +Q.      +E
|-----------------------------------|----------------------------------|
|-----------------------------------|----------------------------------|
|-14---14b15.5---14-12--------------|------12b14==(12)---(12)r====(12)-|
|----------------------14----(14)---|-(14)-----------------------------|
|-----------------------------------|----------------------------------|
|-----------------------------------|----------------------------------|
|
|  E E         Q     E     E   E  E     Q           E  E   E  E E   E
|--------------7--------------------|----------------------------------|
|--------------8-----7-----8--------|---7-----------8--7-----------10--|
|--------------9-----7-----9--------|---7-----------7--7------7-----9--|
|--------------9-----7-----9--------|---7-----------7--7------7-----7--|
|---------------------------------5-|---5---------------------5-----0--|
|--0-0------------------------------|----------------------------------|


                                    Bm7                      C5
                 ~~~~~~~~~~~~~~~~~~~~~~~~
    E      +E   +H.                  +H           +E    E  Q
|---------------------------------|-------------------------------|
|---------------------------------|-------------------------------|
|---------------------------------|-------------------------------|
|--14b17==(14)r(14)---------------|-(14)---------(14)\------------|
|---------------------------------|-------------------------------|
|---------------------------------|-------------------------------|
|
|                                           PM
|  +Q            E  E +E  E  E  E     E   E E  E  +E    Q    E
|---------------------------------|-------------------------------|
|-(10)--------------------8-------|--10--10---10-(10)--(7)--------|
|--(9)-----------9--7-(7)-9-----x-|---7---7-7--7--(7)---7---------|
|--(7)-----------7--7-(7)-7--7--7-|---------7-----------7---------|
|--(0)----------------------(0)---|-------------------------------|
|---------------------------------|--------------------------8\---|


 Main Theme
                       Em                                   C5
    Gtrs III, V
                                                          ~~~~~
  E  E E  E E  Q.           +Q    E a a  E      +E   +E   Q
|-------------20b22======|=(20)r------------------------------|
|---17---20--------------|--------------20b22==(20)r(20)-17---|
|------------------------|------------x-----------------------|
|------------------------|----------x-------------------------|
|------------------------|------------------------------------|
|------------------------|------------------------------------|
|
|      PM---|                     PM-----------|
| Q    E  E E  E     E E    +Q    E      E       E    E   E E
|------------------------|------------------------------------|
|----------------------8-|--(8)-----------------------8-------|
|-5------------5-------9-|--(9)-----------------------9-----5-|
|-5------------5-------9-|--(9)-----------------------9-----5-|
|-3----3--3-3----------7-|--(7)---7------7-------7----------3-|
|------------------------|------------------------------------|


                                 E5     Em                 C5
 ~~~~~~                                   ~~~~~~~~~~~~~
                            |---3---|
   +E   Q    E  +E   E     +E  E    E    +H         H
|-------------------------------------|----------------------|
|-(17)-17---20-(20)-20b24-(20)-----17-|-(17)------(17)-------|
|-------------------------------------|-----------(17)-------|
|-------------------------------------|----------------------|
|-------------------------------------|----------------------|
|-------------------------------------|----------------------|
|
|         PM---|                              PM--|
|   Q     E  E   E   E      E    E        Q   E E   E  E E E
|-------------------------------------|----------------------|
|-------------------------------------|---8------------8-----|
|---5----------------5----------------|---9------------9-----|
|---5----------------5-----------9----|---9------------9---5-|
|---3-----3--3---3---------------7----|---7---7-7---7------3-|
|-------------------------------------|----------------------|


                 C          E5          Em            D5
   E   E E  E    E  Q.           +Q     E  E      +E   +E   E  E
|------------------20b22======|=(20)r--------------------------------|
|-----17---20b22--------------|-----------20b22==(20)r(20)-17-20b22==|
|-----------------------------|--------------------------------------|
|-----------------------------|--------------------------------------|
|-----------------------------|--------------------------------------|
|-----------------------------|--------------------------------------|
|
|        PM|        PM                  PM-----------------|
| +E   E E  E    E  E     E E    +E   E E  E       E    E   E  E
|-----------------------------|--------------------------------------|
|-----------------------------|-------8------------------------------|
|----------------5----------9-|--(9)--9------------9s===7------7-----|
|-(5)--5---------5--------5-9-|--(9)--9------------9s===7------7-----|
|-(3)--3-3--3----3--3-----3-7-|--(7)--7-7--7-------7s===5---5--5-----|
|-----------------------------|--------------------------------------|


           D                                        B5
                           ~~~~~~~~~
   +H         +E   +E   E  E    +H.            +Q
|----------------------------|------------------------|
|-(20)-------(20)r(20)-17----|------------------------|
|-------------------------19-|-(19)-----------(19)\---|
|----------------------------|------------------------|
|----------------------------|------------------------|
|----------------------------|------------------------|
|
|      PM  PM|
|  +E  E E E   E    E   E  E     E  E E E E E   E   E
|----------------------------|------------------------|
|--------7-------------------|------------------------|
|--(7)---7----------7--------|---7--------------------|
|--(7)-7-7----------7---x----|---7----7---7-7-------4-|
|--(5)-5---5---5--------x--5-|--(5)-x-5-0-5-5---0---2-|
|----------------------------|------------------------|


     C5                       Em                               C5
                                                             ~~~~~
   a  E  E E  E    E  Q.           +Q    E  E      +E   +E   Q
|--------------------20b22======|=(20)r--------------------------|
|-------17---20b22--------------|----------20b22==(20)r(20)-17---|
|-17s19-------------------------|--------------------------------|
|-------------------------------|--------------------------------|
|-------------------------------|--------------------------------|
|-------------------------------|--------------------------------|
|
|          PM------|                     PM-------|
|     Q    E  E    E  E     E E    +Q    E  E       E    E   E E
|-------------------------------|--------------------------------|
|-----------------------------8-|--(8)-------------------8-------|
|-----5---------------5-------9-|--(9)-------------------9-----5-|
|-----5---------------5-------9-|--(9)-------------------9-----5-|
|-----3----3--3----3----------7-|--(7)---7--7-------7----------3-|
|-------------------------------|--------------------------------|


                              E5  Em                   C5
 ~~~~~~                                  ~~
   +Q.     E  +E   E      +Q       +Q    H        +Q
|-------------------------------|------------------------|
|-(17)----20-(20)-20b24==(20)r==|=(20)--17-------(17)\---|
|-------------------------------|------------------------|
|-------------------------------|------------------------|
|-------------------------------|------------------------|
|-------------------------------|------------------------|
|
|       PM---|                           PM--|
|   Q   E  E   E   E       E  E     Q    E E E E   E   E
|-------------------------------|------------------------|
|-------------------------------|---8----------8---------|
|---5--------------5------------|---9----------9---------|
|---5--------------5----------9-|---9----------9-------5-|
|---3---3--3---3--------------7-|---7----7-7-7---------3-|
|-------------------------------|------------------------|


       C               E5         Em                      D5
  E  E E  E E  Q.            +Q     E  E      +E   +E   E  E
|-------------20b22=======|=(20)r-------------------------------|
|---17---20---------------|-----------20b22==(20)r(20)-17-20b22-|
|-------------------------|-------------------------------------|
|-------------------------|-------------------------------------|
|-------------------------|-------------------------------------|
|-------------------------|-------------------------------------|
|
|      PM|     PM                   PM-----------------|
| E  E E  E E  E     E  E    +E   E E  E       E    E   E  E
|-------------------------|-------------------------------------|
|-------------------------|-------8-----------------------------|
|-----------5----------/9-|--(9)--9------------9s===7------7----|
|-5--5------5--------5-/9-|--(9)--9------------9s===7------7----|
|-3--3-3--3-3--3-----3-/7-|--(7)--7-7--7-------7s===5---5--5----|
|-------------------------|-------------------------------------|


                                D                  B5
   ~~~                            ~~~~
   H        +E   E  E     +E     +H.             Q
|-17-------(17)\-0-17b19r(17)-|-(17)-------------0---|
|----------------0------------|----------------------|
|-----------------------------|----------------------|
|-----------------------------|----------------------|
|-----------------------------|----------------------|
|-----------------------------|----------------------|
|
|        PM|        PM---|           PM|
| +Q   E E   E   E  E      E      E  E  E  E E E E E
|-----------------------------|----------------------|
|-----------------------------|--(7)-----------------|
|-(7)--7---------7------------|---7------------7-----|
|-(7)--7---------7------------|---7----(7)-----7---4-|
|-(5)--x-5---5------5------5--|------5--5--0-5---0-2-|
|-----------------------------|----------------------|


                                                      Gtr I
                                             ~~~~~    TPTP
   H           +E   +E   E  E        +Q     +H        E E
|-21b23=======(21)r(21)-17--------|-----------------------|
|--------------------------22b24==|=(22)---(22)r----------|
|---------------------------------|-----------------------|
|---------------------------------|-----------------------|
|---------------------------------|-------------------xSx-|
|---------------------------------|-------------------xSx-|
|
|                           PM
| +E     Q.    +Q.          E         E  E   E   E Q  Q
|---------------------------------|-----------------------|
|--------0-----(0)----------------|-----------------------|
|--------4-----(4)----------------|-----------------------|
|-(4)----4-----(4)----------4-----|---4--4---4---4-4------|
|-(2)-----------------------2-----|---2--2---2---2-2------|
|---------------------------------|-----------------------|


 VGtrs III, V
  /  \5_____________________________|
  S +E.  +H.           +H.         +Q
|--------------------|----------------------|
|--------------------|----------------------|
|-0-(0)--(0)---------|-(0)---------(0)------|
|--------------------|----------------------|
|--------------------|----------------------|
|--------------------|----------------------|
|
| Gtr IV                           Gtrs I, II
|                                   \4___|
| TP      TPTPTPTPTP    TP
| Q       E E E E Q     E  E Q  Q   E.  +S
|--------------------|----------------------|
|--------------------|----------------------|
|-xS======xSxSxSxSxS=|==x-------------------|
|-xS======xSxSxSxSxS=|==x-------------------|
|--------------------|----------------------|
|--------------------|--------------0---(0)-|


 Guitar Solo I
  Em                    G5                                          C5
  Gtrs III, V, VI
   ~~~~~                                                      ~~~~~~
   H.            E  E    E  E      +S   +S   E  E      E      Q
|---------------12----|-----------------------------------------------|
|-15b17------------12-|-15-15b17==(15)r(15)-15-15pb17-15pb16-15pb17---|
|---------------------|-----------------------------------------------|
|---------------------|-----------------------------------------------|
|---------------------|-----------------------------------------------|
|---------------------|-----------------------------------------------|
|
|                           PM----|
|  Q     Q  E E  E  E    E  E       E        E +E      E      E     E
|---------------------|-----------------------------------------------|
|--------8--7-8-------|-----------------------------------------------|
|--------9--7-9-------|-----------------------------------------------|
|--------9--7-9-------|--5-------------------5-(5)-----5------------5-|
|---------------------|--5-------------------5-(5)-----5------------3-|
|--0----------------3-|-----3-------3---------------------------------|


             ~~
   |--3---|       |---3---|
   E   E  E  Q    E  E    E  S  S  S      +S
|-12-------------12----------------------------|
|-----15p12-15------15---12-15-12--------------|
|---------------------------------14b16==(14)--|
|----------------------------------------------|
|----------------------------------------------|
|----------------------------------------------|
|
|              PM|           PM---|
| +Q         E E  E    E     E     E
|----------------------------------------------|
|----------------------------------------------|
|----------------------5-----------------------|
|-(5)--------5---------5-----------------------|
|-(3)--------3-3--3----------3-----3-----------|
|----------------------------------------------|


                           D5        Em
                               ~~~~
    a   +S   S  S  S  Q       +Q   E   E   E  E      +E   +E   +E.    S      +S   +E     S
|----------------------------------------|---17b19==(17)-(17)r(17)---17b19==(17)r(17)---17b19==|
|----------------------------------------|-----------------------------------------------------|
|-(14)r(14)-12---------------------0-----|-0---------------------------------------------------|
|--------------14-12---------------------|-----------------------------------------------------|
|--------------------14b16---(14)----/10-|-----------------------------------------------------|
|----------------------------------------|-----------------------------------------------------|
|
|               PM---|                                                                PM
|        E      E     E    E   Q   E   E   Q          Q         E  E          E       E
|----------------------------------------|-----------------------------------------------------|
|----------------------------------------|------------8---------7--8---------------------------|
|--------5-----------------7---7---------|------------9---------7--9---------------------------|
|--------5-----------------7---7---7-----|------------9---------7--9---------------------------|
|---------------3-----3----5---7---5-----|-----------------------------------------------------|
|--------------------------------------0-|-0------------------------------------------3--------|


  G5                                                           C5
                                                         |---3----|
   +S   +E     S      +S   +E     S     +E   S     +S   +E   E    E
|-(17)r(17)---17b19==(17)r(17)---17b18r(17)-17b18r(17)-(17)-15----------|
|----------------------------------------------------------------17b20==|
|-----------------------------------------------------------------------|
|-----------------------------------------------------------------------|
|-----------------------------------------------------------------------|
|-----------------------------------------------------------------------|
|
|           PM-------|
|   E       E          E       E        +E   E           E     E
|-----------------------------------------------------------------------|
|-----------------------------------------------------------------------|
|-----------------------------------------------------------------------|
|---5--------------------------5--------(5)--5-----------------5--------|
|---5--------------------------5--------(5)--5-----------------3--------|
|-----------3----------3------------------------------------------------|


                                                      A5
                                                               Gtrs III, V
                                             ~~~~~~~~~~~~~~~~
   +H         +E   S  S  E     +E     E     +Q.          +E  E T T  E.
|----------------------------------|-------------------------------22----|
|-(17)r======(17)p15h17-17b20r(17)-|-17b20r(17)---------(17)-----x-------|
|----------------------------------|-------------------------0-x---------|
|----------------------------------|-------------------------------------|
|----------------------------------|-------------------------------------|
|----------------------------------|-------------------------------------|
|
|          PM|           PM---|
|  +E  E E E   E   E     E      E     E      E  E     E  +Q    E       E
|----------------------------------|-------------------------------------|
|----------------------------------|-------------------------------------|
|----------------------------------|--5----------------------------------|
|--(5)-------------5---------------|--5---------------2--(2)---2---------|
|--(3)-3-3-3---3---------3------3--|------------------0--(0)---0---------|
|----------------------------------|---------0--3b3.5------------------0-|


  Em
   +E.  S  Q       +S   +E     S  S  S  E
|-(22)-19h22b23===(22)r(22)p==19-22p19-22b24--|
|---------------------------------------------|
|---------------------------------------------|
|---------------------------------------------|
|---------------------------------------------|
|---------------------------------------------|
|
|   Q      Q        E       E     E     E
|---------------------------------------------|
|----------8--------7-------8-----------------|
|----------9--------7-------9-----------------|
|----------9--------7-------9-----------------|
|---------------------------------------------|
|---0-----------------------------------3-----|


  G5                                  C5
                             |--3---|
   +H         S     +S   E  +S   S  S  S  S
|-(22)-------22b24r(22)-19-(19)h20p19S17-17-|
|-------------------------------------------|
|-------------------------------------------|
|-------------------------------------------|
|-------------------------------------------|
|-------------------------------------------|
|
|      PM|
|   E  E E E +E          E   E         E
|-------------------------------------------|
|-------------------------------------------|
|-------------------------------------------|
|---5------5-(5)---------5-------------5----|
|---5------5-(5)---------5-------------3----|
|------3-3----------------------------------|


   |-----5-----|  |------6-------|  |------6-------|  |------6-------|
   S   S S  S  S  S  S  S  S  S  S  S  S  S  S  S  S  S  S  S  S  S  S
|-19--19-x-20-19-17-19p17S15-15-15-17-17-17-19p17-15-15-17p15S14-14-15-|
|----------------------------------------------------------------------|
|----------------------------------------------------------------------|
|----------------------------------------------------------------------|
|----------------------------------------------------------------------|
|----------------------------------------------------------------------|
|
|                          PM------|                  PM------|
| +Q              E        E        E        E        E        E
|----------------------------------------------------------------------|
|----------------------------------------------------------------------|
|--------------------------------------------5-------------------------|
|-(5)-------------5--------------------------5-------------------------|
|-(3)-------------3--------3--------3-----------------3--------3-------|
|----------------------------------------------------------------------|


                             D5                                 Em
   |------6-------|  |------6-------|  |------6------|  |------6-------|
   S  S  S  S  S  S  S  S  S  S  S  S  S  S  S  S  S S  S  S  S  S  S  S
|-15-15-15-17p15p14-14-15-15-17p15p14-15-15-15-17p15-x-17-19p17-15-15-15-|
|------------------------------------------------------------------------|
|------------------------------------------------------------------------|
|------------------------------------------------------------------------|
|------------------------------------------------------------------------|
|------------------------------------------------------------------------|
|
|           PM------|
|  E        E        E        E        Q                E        E
|------------------------------------------------------------------------|
|------------------------------------------------------------------------|
|--5--------------------------7--------7---------------------------------|
|--5--------------------------7--------7----------------7----------------|
|-----------3--------3--------5--------7----------------5----------------|
|----------------------------------------------------------------0-------|


         |--3--|  |------6-------|  |----6-----|
   S  S  S  S  S  S  S  S  S  S  S  S S S  S S S S S S  S
|-17-14-14h15p14s12-14p12s10-10h12p10s8-8h10p8s7-7-7h8h10--|
|----------------------------------------------------------|
|----------------------------------------------------------|
|----------------------------------------------------------|
|----------------------------------------------------------|
|----------------------------------------------------------|
|
|                                                    PM
|  Q              Q                 E      E     E   E
|----------------------------------------------------------|
|-----------------8-----------------7------8---------------|
|-----------------9-----------------7------9---------------|
|-----------------9-----------------7------9---------------|
|----------------------------------------------------------|
|--0-------------------------------------------------3-----|


  G5                                       C5
  Gtrs III, V, VI
  |----6-----| |----6----|     |-3-| |----6----|
  S S S S S  S S S S S S S  E  S S S S S S S S S
|-8p7p0-7h8h10p8p7p0-----------------------------|
|--------------------x-8p7s=5--8p7p5-------------|
|------------------------------------7p5p4-7p4h5-|
|------------------------------------------------|
|------------------------------------------------|
|------------------------------------------------|
|
|       PM-----|
| E     E      E     E     +E  E     E     E
|------------------------------------------------|
|------------------------------------------------|
|------------------------------------------------|
|-5------------------5-----(5)-5-----------5-----|
|-5------------------5-----(5)-5-----------3-----|
|-------3------3---------------------------------|


                                                                 ~~~~~~~~
   |-----5-----| |----5----| |----5----| |-3-|
   S  S S  S T T S S S   S S S S S   S S S S S E      +Q    +E  +E  +Q      +Q
|---------------------------------------------------|-----------------------------|
|---------------------------------------------------|-----------------------------|
|--4h=5h7-/9p7p5s4h5h7p==5p4------------------------|-----------------------------|
|----------------------------7p5p4h==5h7p5-4--------|-----------------------------|
|--------------------------------------------7-5b7==|=(5)---(5)-(5)-(5)r====(5)\--|
|---------------------------------------------------|-----------------------------|
|
|                      PM----|           PM----|          PM|
| +Q             E     E     E     E     E     E       E  E  E   E  +E   E   Q
|---------------------------------------------------|-----------------------------|
|---------------------------------------------------|-----------------------------|
|----------------------------------5----------------|--5---------5--(5)------5\---|
|-(5)------------5-----------------5----------------|--5---------5--(5)-(5)--5\---|
|-(3)------------3-----3-----3-----------3-----3----|-----3--3-----------3--------|
|---------------------------------------------------|-----------------------------|


  F5                          A5                  C5
   \1/                         \1/
                                       ~~~~~~~
   Q.       E  +E   Q.         Q.      E  +H
|---------------------------|---------12-(12)-------|
|----------12-(12)-13-------|-15-------5--(5)-------|
|-14--------4--(4)--5-------|--7--------------------|
|--7------------------------|-----------------------|
|---------------------------|-----------------------|
|---------------------------|-----------------------|
|  Q.       E  +E   Q.         Q.      E  +H
|
|      PM-----|        PM           PM---|      PM
|  E   E E  E   E   E  E E     Q    E  E   E  E E E
|---------------------------|-----------------------|
|---------------------------|-----------------------|
|---------------------------|-----------------------|
|--3------------------------|--7------------------5-|
|--3----------------3----3/-|--7--------------7---3-|
|--1---1-1--1---1---1--1-1/-|--5----5--5---5--5-5---|


   \1/
                           ~~~~
   Q.       E  +S   E.    +Q
|-14-------15-(15)-15----(15)---|
|--7--------8--(8)--8-----(8)---|
|-------------------------------|
|-------------------------------|
|-------------------------------|
|-------------------------------|
|  Q.       E  +S   E.    +Q
|
|      PM|      PM-----|      PM
|  E   E E  E   E      E   E  E
|-------------------------------|
|-------------------------------|
|-------------------------------|
|--5--------5--------------5----|
|--3---3-3--3---3------3---3--3-|
|-------------------------------|


                            F5                   A5
                             \1/                       \1/
    ~~~~~                                                       ~~~~~~~
   +H..              +E      Q.      E  +E   Q    E    Q.       E  +H
|-(15)--------------(15)\-|-------------------------|----------12-(12)-------|
|--(8)---------------(8)\-|---------12-(12)-13---13-|-15--------5--(5)-------|
|-------------------------|-14-------4--(4)--5----5-|--7---------------------|
|-------------------------|--7----------------------|------------------------|
|-------------------------|-------------------------|------------------------|
|-------------------------|-------------------------|------------------------|
|  +H..              +E      Q.      E  +E   Q    E    Q.       E  +H
|
|       PM|                       PM---|       PM          PM-----|
|   E   E E E E E E   E      Q    E  E   E   E E  e    E   E E  E   E  E E E
|-------------------------|-------------------------|------------------------|
|-------------------------|-------------------------|------------------------|
|---5---------5-5-5-------|-------------------------|------------------------|
|---5-------5-5-5-5-------|-------------------------|----------------------0-|
|---3---3-3-3---------x\--|--3---------------3----7-|--7---------------7-----|
|-------------------------|--1----1--1---1---1-1--5-|--5---5-5--5---5--5-----|


  C5      G5                          C5                   D5
   \1/     \1/
                      ~~~~~~~~~~~~
   Q.      E    +E   +Q.      +Q.   E  E     +E   E         +E
|-15-----------------------|----------15b17r(15)----------------|
|--8------15---(15)-(15)---|-(15)---x--8b10r=(8)-15b17r====(15)-|
|----------7----(7)--(7)---|--(7)-----------------7b9r======(7)-|
|--------------------------|------------------------------------|
|--------------------------|------------------------------------|
|--------------------------|------------------------------------|
|  Q.      E    +E   +Q.      +Q.   E  E     +E   E         +E
|
|       PM
|  Q    E  E    +H             H       E      E   E     a    E
|--------------------------|------------------------------------|
|----------3----(3)--------|------------------------------------|
|--5-------0----(0)--------|---0--------------------------------|
|--5-------0----(0)--------|---0-------5------5---5----(5)s==7--|
|--3----3------------------|-----------3------0---3----(3)s==5--|
|----------3----(3)--------|------------------------------------|


                                                             B5
   +E   E     +H         +Q       Q.     E  E         +E   E  E
|------------------------------|-----------15b17r====(15)-17-17b19====|
|-(15)-------------------------|------------8b10r=====(8)-10-10b12====|
|--(7)-14b16r(14)-------(14)---|-14------x----------------------------|
|-------7b9r==(7)--------(7)---|--7------x----------------------------|
|------------------------------|--------------------------------------|
|------------------------------|--------------------------------------|
|  +E   E     +H         +Q       Q.     E  E         +E   E  E
|
|                            PM
|  +E  +E      E  E E E   E  E    E  E E E  E     a    E   E  E
|------------------------------|--------------------------------------|
|------------------------------|--------------------------------------|
|--------------7--7-7-7--------|--------------------------------------|
|--(7)---------7--7-7-7---7----|--7----7----9----(9)s==7---0--4-------|
|--(5)-(5)-----5--5-5-5---5--5-|--5--5-5-5--7----(7)s==5---0--2-------|
|------------------------------|--------------------------------------|


                                 ~~~~~~~~~~~~~~~
   +H       +E   +E   Q         +H         +E   E   Q
|-(17)-----(17)r(17)-17b19===|=(17)-------(17)r----------|
|-(10)-----(10)r(10)-10b12===|=(10)-------(10)r----------|
|----------------------------|---------------------------|
|----------------------------|---------------------------|
|----------------------------|---------------------------|
|----------------------------|------------------x\-12\---|
|  +H       +E   +E   Q         +H         +E   E   Q
|
|   Q   H             Q          E  E E E   E   E   E  E
|----------------------------|---------------------------|
|----------------------------|---------------------------|
|-------4--------------------|---------------------------|
|-------4-------------4------|---4-----------------------|
|-------2-------------2------|---2--2-2-2---2---2---2--2-|
|----------------------------|---------------------------|


   \4
   W           +W
|------------|----------------|
|------------|----------------|
|-<2>--------|-(2)------------|
|------------|----------------|
|------------|----------------|
|------------|----------------|
|
|  ~~~~~~~~~~~~~~~~
|  W           +H.        Q
|------------|----------------|
|------------|----------------|
|------------|----------------|
|------------|----------------|
|-[2]--------|-(2)------------|
|------------|----------/12\--|


 Verse Theme Reprise
  Em          D/E  Em     D                                   A5
                ~~~~~~~~~~~~~~~~~~~~
  Q  E  E      +Q     +Q       +Q    E  E    E  a      +E   E  E
|---------------------------|------------------------------------|
|---------------------------|------------------------------------|
|------14b16==(14)---(14)---|-(14)r----14b16---14pb16r(14)p12-14-|
|---------------------------|------------------------------------|
|---------------------------|------------------------------------|
|---------------------------|------------------------------------|
|
|                         PM
| Q  Q          E  E   E  E     Q    E  E    E          E   E  E
|---------------------------|------------------------------------|
|----8----------7--8--------|--------8--7------------------------|
|----9----------7--9--------|---7----7--7---------------7------9-|
|----9----------7--9--------|---7----7--7---------------7------7-|
|----------------------x--5-|---5-----------------------5------0-|
|-0-------------------------|------------------------------------|


                                   Bm7                 Em
                                        |---3----|
   +Q.     +E      +Q    Q     H        Q   q    q
|----------------------------|----------------------------|
|----------------------------|----------------------------|
|-(14)----(14)b16-(14)-------|------------------12--------|
|----------------------------|-------------14-------------|
|----------------------------|----------------------------|
|----------------------------|----------------------------|
|
|                          PM        ~~~~~~
|  +Q   Q           E  E E E   E E E E +Q     E     a  E
|----------------------------|----------------------------|
|----------------------------|----------------------------|
|--(9)--9-----------7--9-----|-9-7---7-(7)----7----(7)s9--|
|--(7)--7-----------7--7-----|-7-7---7-(7)----7----(7)s9--|
|--(0)---------------------0-|----------------------------|
|----------------------------|-----7----------------------|


                    D/E    Em     D5                             A5
                        ~~~~~~~~~~
   |------3-------|
   q    q         q  S  E.    +Q       +E  E E  E  a  E  E  a  E  E
|-----------------------------------|-------------------------------|
|-----------------------------------|-------------------------------|
|-14---14b15.5---14-12--------------|-------------------------------|
|----------------------14----(14)---|-(14)--------12s14s12----------|
|-----------------------------------|----------14----------12s14s12-|
|-----------------------------------|-------------------------------|
|
|  E E         Q     E     E   E  E     Q    E  E     E  E     E  E
|--------------7--------------------|-------------------------------|
|--------------8-----7-----8--------|---7----8--7----------------10-|
|--------------9-----7-----9--------|---7----7--7--------7--------9-|
|--------------9-----7-----9--------|---7----7--7--------7--------7-|
|---------------------------------5-|---5----------------5--------0-|
|--0-0------------------------------|-------------------------------|


                              Bm7                     Em
    ~~~~~~~~~~~~~~~~~~~~~~~~~~~~~~~~
   +Q.     +E   +H             +Q       Q      H
|---------------------------|-----------------------------|
|---------------------------|-----------------------------|
|---------------------------|-----------------------------|
|---------------------------|-----------------------------|
|-(12)----(12)-(12)---------|-(12)\-----------------------|
|---------------------------|-----------------------------|
|
|  +Q   E   E   +E  E  E  E     E    E  E  E  +E  E E  E
|---------------------------|-----------------------------|
|-(10)--------------8-------|--10---10-10-(7)-(7)-7-------|
|--(9)--9---7---(7)-9-----x-|---7----7--7--7--(7)-7-------|
|--(7)--7---7---(7)-7--7--7-|--------------7--(7)-7-------|
|--(0)----------------(0)---|--------------------------7--|
|---------------------------|-------------------------(0)-|


                 D/Em     D5                        A5
                                ~~~~~
  E. T T  H           +Q       +Q    E  E    E  E E  E
|---------------------------|--------------------------|
|---------------------------|--------------------------|
|--------14b16=======(14)---|-(14)r----14b16---14---12-|
|------x--------------------|--------------------------|
|----x----------------------|--------------------------|
|---------------------------|--------------------------|
|
|                         PM
| Q       Q      E E   E  E     Q    E  E    E  E E  E
|---------------------------|--------------------------|
|---------8------7-8--------|--------8--7--------------|
|---------9------7-9--------|---7----7--7-------7----9-|
|---------9------7-9--------|---7----7--7-------7----7-|
|----------------------x--5-|---5---------------5----0-|
|-0-------------------------|--------------------------|


                                     Bm7                 Em
                                          |---3----|
   Q.     +S   S  Q.      E      H        Q   q    q
|------------------------------|---------------------------|
|------------------------------|---------------------------|
|-14-----(14)p12---------12b14-|------------------12-------|
|----------------14------------|-------------14------------|
|------------------------------|---------------------------|
|------------------------------|---------------------------|
|
|                         PM           ~~~~~~
| +Q   Q          E  E E  E      E E E E +Q     E     a  E
|------------------------------|---------------------------|
|------------------------------|---------------------------|
|-(9)--9----------7--9---------|-9-7---7-(7)----7----(7)s9-|
|-(7)--7----------7--7---------|-7-7---7-(7)----7----(7)s9-|
|-(0)---------------------0----|---------------------------|
|------------------------------|-----7---------------------|


                    D/E    Em     D5                          A5
                               ~~~~~~~~~~~~
   |------3-------|
   q    q         q  S  E.    +Q       +Q.     E      +H
|-----------------------------------|----------------------------|
|-----------------------------------|----------------------------|
|-14---14b15.5---14-12--------------|---------12b14==(12)--------|
|----------------------14----(14)---|-(14)-----------------------|
|-----------------------------------|----------------------------|
|-----------------------------------|----------------------------|
|
|  E E         Q     E     E   E  E     Q   E  E       E  E E  E
|--------------7--------------------|----------------------------|
|--------------8-----7-----8--------|---7---8--7--------------10-|
|--------------9-----7-----9--------|---7---7--7----------7----9-|
|--------------9-----7-----9--------|---7---7--7----------7----7-|
|---------------------------------5-|---5-----------------5----0-|
|--0-0------------------------------|----------------------------|


                                                Bm7                       C5
                                         ~~~~~~~~~~~~~~~~~~~~~
   +E   +E   E.    +S       +S   +E.    +Q       +Q      +Q        H
|---------------------------------------------|-----------------------------|
|---------------------------------------------|-----------------------------|
|-(12)r(12)-----------------------------------|-----------------------------|
|-----------14----(14)b17==(14)r(14)---(14)---|-(14)----(14)\---------------|
|---------------------------------------------|-----------------------------|
|---------------------------------------------|-----------------------------|
|
|  +Q        E  E           +E       E   E  E     E   E   E    E  +E  Q   E
|---------------------------------------------|-----------------------------|
|-(10)-------------------------------8--------|--10--10-------10-(10)-7\----|
|--(9)-------9--7-----------(7)------9------x-|---7---7---7----7--(7)-7\----|
|--(7)-------7--7-----------(7)------7---7--7-|-----------7-----------7\--5-|
|--(0)----------------------------------(0)---|---------------------------3-|
|---------------------------------------------|-----------------------------|


 Main Theme Reprise
                       Em                                   C5
    Gtrs III, V
                                                          ~~~~~
  E  E E  E E  Q.           +Q    E a a  E      +E   +E   Q
|-------------20b22======|=(20)r------------------------------|
|---17---20--------------|--------------20b22==(20)r(20)-17---|
|------------------------|------------x-----------------------|
|------------------------|----------x-------------------------|
|------------------------|------------------------------------|
|------------------------|------------------------------------|
|
|      PM---|                     PM-----------|
| Q    E  E E  E     E E    +Q    E      E       E    E   E E
|------------------------|------------------------------------|
|----------------------8-|--(8)-----------------------8-------|
|-5------------5-------9-|--(9)-----------------------9-----5-|
|-5------------5-------9-|--(9)-----------------------9-----5-|
|-3----3--3-3----------7-|--(7)---7------7-------7----------3-|
|------------------------|------------------------------------|


                                 E5     Em                 C5
 ~~~~~~                                   ~~~~~~~~~~~~~
                            |---3---|
   +E   Q    E  +E   E     +E  E    E    +H        +H
|-------------------------------------|----------------------|
|-(17)-17---20-(20)-20b24-(20)-----17-|-(17)------(17)-------|
|-------------------------------------|----------------------|
|-------------------------------------|----------------------|
|-------------------------------------|----------------------|
|-------------------------------------|----------------------|
|
|         PM---|                              PM--|
|   Q     E  E   E   E      E    E        Q   E E   E  E E E
|-------------------------------------|----------------------|
|-------------------------------------|---8------------8-----|
|---5----------------5----------------|---9------------9-----|
|---5----------------5-----------9----|---9------------9---5-|
|---3-----3--3---3---------------7----|---7---7-7---7------3-|
|-------------------------------------|----------------------|


       C                  E5        Em              D5
  E  E E  E    E  Q.           +Q     E  E      +E   +E   E  E
|----------------20b22======|=(20)r--------------------------------|
|---17---20b22--------------|-----------20b22==(20)r(20)-17-20b22==|
|---------------------------|--------------------------------------|
|---------------------------|--------------------------------------|
|---------------------------|--------------------------------------|
|---------------------------|--------------------------------------|
|
|      PM|        PM                  PM-----------------|
| E  E E  E    E  E     E E    +E   E E  E       E    E   E  E
|---------------------------|--------------------------------------|
|---------------------------|-------8------------------------------|
|--------------5----------9-|--(9)--9------------9s===7------7-----|
|-5--5---------5--------5-9-|--(9)--9------------9s===7------7-----|
|-3--3-3--3----3--3-----3-7-|--(7)--7-7--7-------7s===5---5--5-----|
|---------------------------|--------------------------------------|


           D                                        B5
                           ~~~~~~~~~
   +H         +E   +E   E  E    +H.            +Q
|----------------------------|------------------------|
|-(20)-------(20)r(20)-17----|------------------------|
|-------------------------19-|-(19)-----------(19)\---|
|----------------------------|------------------------|
|----------------------------|------------------------|
|----------------------------|------------------------|
|
|      PM  PM|
|  +E  E E E   E    E   E  E     E  E E E E E   E   E
|----------------------------|------------------------|
|--------7-------------------|------------------------|
|--(7)---7----------7--------|---7--------------------|
|--(7)-7-7----------7---x----|---7----7---7-7-------4-|
|--(5)-5---5---5--------x--5-|--(5)-x-5-0-5-5---0---2-|
|----------------------------|------------------------|


  C5                      Em                               C5
                                                         ~~~~~
  E  E E  E    E  Q.           +Q    E  E      +E   +E   Q
|----------------20b22======|=(20)r--------------------------|
|---17---20b22--------------|----------20b22==(20)r(20)-17---|
|---------------------------|--------------------------------|
|---------------------------|--------------------------------|
|---------------------------|--------------------------------|
|---------------------------|--------------------------------|
|
|      PM------|                     PM-------|
| Q    E  E    E  E     E E    +Q    E  E       E    E   E E
|---------------------------|--------------------------------|
|-------------------------8-|--(8)-------------------8-------|
|-5---------------5-------9-|--(9)-------------------9-----5-|
|-5---------------5-------9-|--(9)-------------------9-----5-|
|-3----3--3----3----------7-|--(7)---7--7-------7----------3-|
|---------------------------|--------------------------------|


                              E5  Em                        C5
 ~~~~~~                                                      PM
   +Q.     E  +E   E      +Q       +Q    S  +E.    +Q     E  E
|-------------------------------|------------------------------|
|-(17)----20-(20)-20b24==(20)r==|=(20)--17-(17)---(17)---17----|
|-------------------------------|---------------------------19-|
|-------------------------------|------------------------------|
|-------------------------------|------------------------------|
|-------------------------------|------------------------------|
|
|       PM---|                           PM-------|
|   Q   E  E   E   E       E  E     Q    E      E   E  E  E  E
|-------------------------------|------------------------------|
|-------------------------------|---8------------------8-------|
|---5--------------5------------|---9------------------9-------|
|---5--------------5----------9-|---9------------------9-----5-|
|---3---3--3---3--------------7-|---7----7------7---7--------3-|
|-------------------------------|------------------------------|


       C               E5         Em              D5
  E  E E  E E  Q.            +Q     E  E      +E   +E   E  E
|-------------20b22=======|=(20)r--------------------------------|
|---17---20---------------|-----------20b22==(20)r(20)-17-20b22==|
|-------------------------|--------------------------------------|
|-------------------------|--------------------------------------|
|-------------------------|--------------------------------------|
|-------------------------|--------------------------------------|
|
|      PM|     PM                   PM-----------------|
| E  E E  E E  E     E  E    +E   E E  E       E    E   E  E
|-------------------------|--------------------------------------|
|-------------------------|-------8------------------------------|
|-----------5----------/9-|--(9)--9------------9s===7------7-----|
|-5--5------5--------5-/9-|--(9)--9------------9s===7------7-----|
|-3--3-3--3-3--3-----3-/7-|--(7)--7-7--7-------7s===5---5--5-----|
|-------------------------|--------------------------------------|


          D                                            B5
                                     ~~~~~
   +H        +E   S S  E     +E     +H..               E
|--------------------------------|-----------------------|
|-(20)------(20)r-----22b24r(22)-|-(22)----------------x-|
|-------------------x------------|-----------------------|
|-----------------x--------------|-----------------------|
|--------------------------------|-----------------------|
|--------------------------------|-----------------------|
|
|         PM|          PM---|            PM|
|  +Q   E E   E   E    E      E      E   E  E  E E E E E
|--------------------------------|-----------------------|
|--------------------------------|--(7)------------------|
|--(7)--7---------7--------------|---7-------------7-----|
|--(7)--7---------7--------------|---7-----(7)-----7---4-|
|--(5)--x-5---5--------5------5--|-------5--5--0-5---0-2-|
|--------------------------------|-----------------------|


 Guitar Solo II
  C5                                 Em                                C5
      Gtrs III, V, VI
                                                ~~~~~~~
  S S  Q.         +Q      S      +S   E    E   +Q.        E  E     +E   +E
|-----22b24======(22)r---22pb24r(22)-19-|-22--(22)b24-----------------------|
|---x-----------------------------------|-----------------x-12b14-(12)-(12)-|
|-x-------------------------------------|-----------------x-12b14-(12)-(12)-|
|---------------------------------------|-----------------------------------|
|---------------------------------------|-----------------------------------|
|---------------------------------------|-----------------------------------|
|
|            PM--|                                    PM--|
| Q          E E   E   E  E           E   +Q          E E E  E      E    E
|---------------------------------------|-----------------------------------|
|-------------------------------------8-|-(8)----------------8--------------|
|-5--------------------5--------------9-|-(9)----------------9-----------5--|
|-5--------------------5--------------9-|-(9)----------------9-----------5--|
|-3----------3-3---3------------------7-|-(7)---------7-7-7--------------3--|
|---------------------------------------|-----------------------------------|


                                  E5           B5          C5
                                        ~~~
   E  E     E  E     +E   E  E  a  E    H.            +Q
|-12---------------------------------|------------------------|
|----15b16-12------------------------|------------------------|
|-------------14b16r(14)p12----------|------------------------|
|---------------------------14-------|------------------------|
|------------------------------14s12-|-10------------(10)/----|
|------------------------------------|------------------------|
|
|           PM------|                          PM|
|  Q        E  E      E   E  E     E    E  E E E E E   E   E
|------------------------------------|------------------------|
|------------------------------------|------------------------|
|--5----------------------5----------|------------------------|
|--5----------------------5--------9-|--9--9---4-4-4-------5--|
|--3--------3--3------3------------7-|--7--7---2-2-2-------3--|
|------------------------------------|------------------------|


           C                                     E5
                                T     T        T     T
             |----3----|  |-----6-----|  |-----6-----|
  E  E      +E    E    E  S  S  S  E  S  S  S  S  E  S
|----------------12------------------------------------|
|---------------------12-------------------------------|
|---14b16==(14)r---------14h15-21p14-21p14h15-21p14-21p|
|-x----------------------------------------------------|
|------------------------------------------------------|
|------------------------------------------------------|
|
|            PM-----|              PM
| E  E       E      E     E        E     E        E
|------------------------------------------------------|
|------------------------------------------------------|
|-------------------------5-----------------------9----|
|-5--5--------------------5--------------5--------9----|
|-3--3-------3------3-----3--------3-----3--------7----|
|------------------------------------------------------|


            Em                                   D5
          T     T        T    T
   |-----6------|  |----6-----|
   S   S  S  E  S  S  S  S  E S  E     +S   S  E  E
|--------------------------------------------------------|
|--------------------------------------------------------|
|-14h=15-21p14-21p14h15-21p14-xp14b16r(14)p12----12b14===|
|---------------------------------------------14---------|
|--------------------------------------------------------|
|--------------------------------------------------------|
|
|                  PM-------------------------|
| +E         E     E        E    E      E      E  E
|--------------------------------------------------------|
|------------8-------------------------------------------|
|-(9)--------9-------------------9s=====7---------7------|
|-(9)--------9-------------------9s=====7---------7------|
|-(7)--------7-----7--------7----7s=====5------5--5------|
|--------------------------------------------------------|


           D                                            B5
                                                     Gtr IV
                                    ~~~~             TP
   +H         +E   +E   a  E  E    +H         +Q     Q
|-------------------------------|-------------------------|
|-------------------------------|-------------------------|
|-(12)-------(12)r(12)----------|--------------------x/---|
|----------------------12s14-12-|-(12)-------(12)\---x/---|
|-------------------------------|-------------------------|
|-------------------------------|-------------------------|
|
|      PM  PM|
|   E  E E E   E    E      E  E     E  E E E   E   E E  E
|-------------------------------|-------------------------|
|--------7----------------------|-------------------------|
|---7----7----------7-----------|---7---------------------|
|---7--7-7----------7------x----|---7----7-----7---7----4-|
|---5--5---5---5-----------x--5-|--(5)-x-5-0---5---5-0--2-|
|-------------------------------|-------------------------|


 Main Theme (Last Time)
  C5                   Em                               C5
    Gtrs III, V
                                                      ~~
  E  E E  E E  Q.           +Q    E  E      +E   +E   Q
|-------------20b22======|=(20)r--------------------------|
|---17---20--------------|----------20b22==(20)r(20)-17---|
|------------------------|--------------------------------|
|------------------------|--------------------------------|
|------------------------|--------------------------------|
|------------------------|--------------------------------|
|
|      PM---|                     PM-------|
| Q    E  E E  E     E E    +Q    E  E       E    E   E E
|------------------------|--------------------------------|
|----------------------8-|--(8)-------------------8-------|
|-5------------5-------9-|--(9)-------------------9-----5-|
|-5------------5-------9-|--(9)-------------------9-----5-|
|-3----3--3-3----------7-|--(7)---7--7-------7----------3-|
|------------------------|--------------------------------|


                            E5                  B5           C5
    ~~~~~~                   ~~~~~~~~~~~~~~~~~~~~~~~~~~
   +E   Q    E  +E   E    E  E    +Q     S  +E.    +Q     Q
|------------------------------|-------------------------------|
|-(17)-17---20-(20)-20b24---17-|-(17)---17-(17)---(17)---17\---|
|------------------------------|-------------------------------|
|------------------------------|-------------------------------|
|------------------------------|-------------------------------|
|------------------------------|-------------------------------|
|
|         PM---|                                PM|
|   Q     E  E   E   E    E  E     E  E  E      E   E  E  E  E
|------------------------------|-------------------------------|
|------------------------------|-------------------------------|
|---5----------------5---------|-------------------------------|
|---5----------------5-------9-|---9--9---------4---4--4-----5-|
|---3-----3--3---3-----------7-|---7--7---------2---2--2-----3-|
|------------------------------|-------------------------------|


       C               E5                          D5
     ~~
  E  E E  E E  Q.           +Q     S S  E      +E   +E   E  E
|-------------20b22======|=(20)r------------------------------------|
|---17---20--------------|-------------20b22==(20)r(20)-17-20b22====|
|------------------------|-----------x------------------------------|
|------------------------|---------x--------------------------------|
|------------------------|------------------------------------------|
|------------------------|------------------------------------------|
|
|      PM---|                      PM-------------------|
| Q    E  E E  E     E E    +E   E E    E       E    E   E  E
|------------------------|------------------------------------------|
|------------------------|-------8----------------------------------|
|-5------------5---------|-------9--------------9s===7------7-------|
|-5------------5-------9-|--(9)--9--------------9s===7------7-------|
|-3----3--3-3----------7-|--(7)--7-7----7-------7s===5---5--5-------|
|------------------------|------------------------------------------|


  D5                                         E5D5   B5
          ~~~~~~~~~~~               ~~~~
   +Q    +Q     +E   E  E     E    +H.           E   E
|-------------------------------|--------------------------|
|-(20)--(20)---(20)r---22b24-22-|-(22)--------------22b24==|
|-------------------------------|----------------x\--------|
|-------------------------------|----------------x\--------|
|-------------------------------|--------------------------|
|-------------------------------|--------------------------|
|
|            PM|        PM---|         PM
|  +Q     E  E   E   E  E     E     E  E E E E E E   E
|-------------------------------|--------------------------|
|---------7----------7----------|---8----------------------|
|--(7)----7----------7----------|---7----------------------|
|--(7)----7----------7----------|---7----7---9s7-----4-----|
|--(5)----5--5---5------5-----5-|------5-5-0-7s5-0---2-----|
|-------------------------------|--------------------------|


                                          ~~~~        ~~~~~
   +H         +E   +E   E      E         +Q.      E  +Q    S S  E
|-------------------------------------|------------------------21b23==|
|-(22)-------(22)r(22)-22pb23-22pb24==|=(22)-----22-(22)r----x--------|
|-------------------------------------|--------------------x----------|
|-------------------------------------|-------------------------------|
|-------------------------------------|-------------------------------|
|-------------------------------------|-------------------------------|
|
|        PM--|                                 PM
|   E  E E E   E    E   E      E          E  E E  E  +Q    E    E
|-------------------------------------|-------------------------------|
|-------------------------------------|-------------------------------|
|---4--4------------4-----------------|---4--4-2--4--(4)---4----------|
|--(4)-4-4-2--------4-----------------|---4--4-2--4--(4)---4----2-----|
|--(2)---2-2---2---------------2------|--------2----------------2-----|
|-------------------------------------|-------------------------------|


         Bsus4            B5
   +H        +Q     E      E
|-(21)r=====(21)---21pb22-21pb23==|
|---------------------------------|
|---------------------------------|
|---------------------------------|
|---------------------------------|
|---------------------------------|
|
|  +E  E Q   +E  Q         E
|---------------------------------|
|--------5---(5)-5----------------|
|--------4---(4)-4----------------|
|--(2)-4-4---(4)-4---------2------|
|--(2)-2-2---(2)-2---------2------|
|---------------------------------|


                             Outro
                              N.C.
                              Gtrs III, IV, V, VI
    ~~~~                       ~~~~~~~~  ~~~~ ~~
   +H        +E   +E    Q      Q.    E  +Q    Q
|-(21)------(21)-(21)r\-----|----------------17--|
|---------------------------|-17----20-(20)------|
|-----------------------x/--|-------12-(12)--14--|
|-----------------------x/--|-14-----------------|
|---------------------------|--------------------|
|---------------------------|--------------------|
|                              Q.    E  +Q    Q
|
|                                    ~~~~~~~~~~~
|   Q   E E  +E   +E    Q      Q.    E  +Q    Q
|---------------------------|--------------------|
|---------------------------|--------------------|
|---------------------------|--------------------|
|---4---2-4--(4)--(4)\------|--------------------|
|---2---2-2--(2)--(2)\------|--------------------|
|-----------------------3\--|--0-----3--(3)---5--|


    ~~~~~~~~~~~~~~~~~~~~~~~~~~~~~~~~~~~~~~~~~~~~~~~~
   +E   Q.    +H         W            +H.       +E   +E
|-(17)-18----(18)----|--18---------|-(18)------(18)-(18)\-|
|--------------------|-(18)--------|-(18)-----------------|
|-(14)-15----(15)----|--15---------|-(15)------(15)-(15)\-|
|--------------------|-------------|----------------------|
|--------------------|-------------|----------------------|
|--------------------|-------------|----------------------|
|  +E   Q.    +H         W            +H.       +E   +E
|
|   ~~~~~~~~~~~~~~~~~~~~~~~~~~~~~~~~~~~~~~~~~~~~~~~~
|  +E   Q.    +H        +W            +H.       +E    E
|--------------------|-------------|----------------------|
|--------------------|-------------|----------------------|
|--------------------|-------------|----------------------|
|--------------------|-------------|----------------------|
|--------------------|-------------|----------------------|
|--(5)--6-----(6)----|--(6)--------|--(6)-------(6)-------|


  Em7
                    ~~~~
   Q     E  E      +Q.         +E
|-22b24----22b24==(22)--------(22)r\-*|
|------------------------------------*|
|------------------------------------*|
|------------------------------------*|
|------------------------------------*|
|------------------------------------*|
|
|  Q     E  E      +E   +Q.
|------------------------------------*|
|------------------------------------*|
|-12-------12-----(12)-(12)\---------*|
|-12-------12-----(12)-(12)\---------*|
|------------------------------------*|
|------------------------------------*|


Duration Legend
---------------
W - whole; H - half; Q - quarter; E - 8th; S - 16th; T - 32nd; X - 64th; a - acciaccatura
+ - note tied to previous; . - note dotted; .. - note double dotted
Uncapitalized letters represent notes that are staccato (1/2 duration)
Irregular groupings are notated above the duration line
Duration letters will always appear directly above the note/fret number it represents the
duration for.  Duration letters with no fret number below them represent rests.  Multi-
bar rests are notated in the form Wxn, where n is the number of bars to rest for.  Low
melody durations appear below the staff

Tablature Legend
----------------
 h   - hammer-on
 p   - pull-off
 b   - bend
 pb  - pre-bend
 r   - bend release (if no number after the r, then release immediately)
 /\  - slide into or out of (from/to "nowhere")
 s   - legato slide
 S   - shift slide
  - natural harmonic
[n]  - artificial harmonic
n(n) - tapped harmonic
 ~   - vibrato
 tr  - trill
 T   - tap
 TP  - trem. picking
 PM  - palm muting
\n/  - tremolo bar dip; n = amount to dip
 \n  - tremolo bar down
 n/  - tremolo bar up
/n\  - tremolo bar inverted dip
 =   - hold bend; also acts as connecting device for hammers/pulls
 <>  - volume swell (louder/softer)
 x   - on rhythm slash represents muted slash
 o   - on rhythm slash represents single note slash

Misc Legend
-----------
 |  - bar
||  - double bar
||o - repeat start
o|| - repeat end
*|  - double bar (ending)
 :  - bar (freetime)
 $  - Segno
 &  - Coda
Tempo markers -  = BPM(8/16=s8/s16), where s8 = swing 8ths, s16 = swing 16ths


***************************************************************************************
* Generated using Power Tab Editor by Brad Larsen - http://powertab.guitarnetwork.org *
***************************************************************************************


Joe Satriani albums
2004 Is There Love in Space?
2002 Strange Beautiful Music
2000 Engines of Creation
1998 Crystal Planet
1995 Joe Satriani
1993 Time Machine
1992 The Extremist
1989 Flying in a Blue Dream
1987 Surfing With the Alien
1986 Not of This Earth
Flying in a Blue Dream tabs
01Flying in a Blue Dream tabbass tab
02The Mystical Potato Head Groove Thing tabbass tab
03Can't Slow Down tabbass tab
04Headless tabbass tab
05Strange tabbass tab
06I Believe tabbass tab
07One Big Rush tabbass tab
08Big Bad Moon tabbass tab
09The Feeling tabbass tab
11Day at the Beach (New Rays from an Ancient Sun) tabbass tab
12Back to Shalla-Bal tabbass tab
13Ride tabbass tab
14Forgotten, Pt. 1 tabbass tab
15Forgotten, Pt. 2 tabbass tab
18Into the Light tabbass tab

 

1