Search tabs:
Browse artists: 0-9 | A | B | C | D | E | F | G | H | I | J | K | L | M | N | O | P | Q | R | S | T | U | V | W | X | Y | Z
/ / / guitar tab

all dist electric - tuned - E A D G B E
Gtr I 'Joe Satriani - Lead'
Gtr II 'Joe Satriani - Rhythm'
Gtr III, IV - 'Fills'
Gtr V - 'Joe Satriani - Sitar arr. for guitar'

Q=92
 4/4

  Gtr II
         PM------|
  E. s E E E E E E
|------------------|
|------------------|
|------------------|  Rhy Fig 1
|-2--4-------------|
|-2--4---4-4-4-4-4-|
|-0--2---2-2-2-2-2-|
|-Rhy Fig 1    ----|

Gtr II plays Rhy Fig 1 x10
Gtr I
  Q    E  S   S  S S S  S  E E   W
|------------------------------|-------------------|
|------------------------------|-------------------|
|------------------------------|-------------------|
|------------------------------|-------------------|
|------------------------------|-------------------|
|--------/x\-/x\-x-x---/x\-x---|-------------------|


    Q    E E E.  S Q     +Q.     E S S S S a Q
||---------------------|-------------------------|
||o--------------------|-------------------------|
||---------------------|---------------3---3s4---|
||---------4-4h==5-2---|-(2)-----4-4h5---5-------|
||o--------------------|-------------------------|
||---------------------|-------------------------|



  +E  E    E  S   S   S   S   S   S   S   E.     Q    E  S   S  S S S  S  E E
|----------------------------------------------|---------------------------------||
|----------------------------------------------|--------------------------------o||
|-(4)-3\-------------------------<5>-----------|---------------------------------||
|------------------------<5>-<4>---------<5>---|---------------------------------||
|----------------<5>-<4>-------------<4>-------|--------------------------------o||
|------------<4>-------------------------------|--------/x\-/x\-x-x---/x\-x------||



  $
  Gtr V
                                                                 ~~
  Q    S S S S S S S S S S S S   S S   S S  S S   S S  S S  S S  Q
|------------------------------|-------------------------------------|
|--------0---0---0-5-0-4-0-8-0-|-7-0-/12-0-10-0-/17-0-16-0-13-0-10---|
|----------5---4---------------|-------------------------------------|
|------------------------------|-------------------------------------|
|------------------------------|-------------------------------------|
|------------------------------|-------------------------------------|
|
| E. s Q       H                 W
|------------------------------|-------------------------------------|
|------------------------------|-------------------------------------|
|------------------------------|-------------------------------------|
|-2--4-------------------------|-------------------------------------|
|-2--4-------------------------|-------------------------------------|
|-0--2-------------------------|-------------------------------------|


*the random harmonics are produced by a quick legato technique
of the notes with the fretting hand while sliding the picking
hand lightly up and down the string

  Gtrs I, II
  T T T T T T T T T T T T T T T T T T T T T T T T T T T T T T T T
|-------------------------------------------------------------------|
|-------------------------------------------------------------------|
|-------------------------------------------------------------------|
|-------------------------------------------------------------------|
|*2h4p2p0h2h4p2p0h2h4p2p0h2h4p2p0h2h4p2p0h2h4p2p0h2h4p2p0h2h4p2p0h==|
|-------------------------------------------------------------------|


  T T T T T T T T T T T T T T T T T T T T T T T T T T T T    E
|-----------------------------------------------------------------|
|-----------------------------------------------------------------|
|-----------------------------------------------------------------|
|-----------------------------------------------------------------|
|-2h4p2p0h2h4p2p0h2h4p2p0h2h4p2p0h2h4p2p0h2h4p2p0h2h4p2p0-/(12)\--|
|-----------------------------------------------------------------|

w/Rhy Fig 1 x4
  Gtr I
  Q    E E E.  S Q     +Q.     E S S S S a Q
|--------------------|-------------------------|
|--------------------|-------------------------|
|--------------------|---------------3---3s4---|
|--------4-4h==5-2---|-(2)-----4-4h5---5-------|
|--------------------|-------------------------|
|--------------------|-------------------------|



  +E  E    E  S   S   S   S   S   S   S   E.     Q    E  S   S  S S S  S  E E
|----------------------------------------------|---------------------------------|
|----------------------------------------------|---------------------------------|
|-(4)-3\-------------------------<5>-----------|---------------------------------|
|------------------------<5>-<4>---------<5>---|---------------------------------|
|----------------<5>-<4>-------------<4>-------|---------------------------------|
|------------<4>-------------------------------|--------/x\-/x\-x-x---/x\-x------|



  ~~                ~~~~~~~~~~~~~~~~~~~~~
  H.           Q    W                 H.          Q
|-4---------------|-----------------|-7--------------|
|-6-----------10--|-9---------------|-5-----------3--|
|-4-----------10--|-9---------------|-5-----------3--|
|-7-----------10--|-9---------------|-6-----------3--|
|-5------------7--|-8---------------|-8--------------|
|-----------------|-----------------|-------------4--|
|
| ~~  PM----|  ~~~~~~~ PM--------|    ~~  PM----| ~
| Q   E E E E  Q    Q  E E E E E E    Q   E E E E Q
|-----------------|-----------------|----------------|
|-----------------|-----------------|----------------|
|-----------------|-----------------|----------------|
|-----------------|-----------------|----------------|
|-5---5-5-5-5--7--|-8--8-8-8-8-8-8\-|----------------|
|-----------------|-----------------|-5---5-5-5-5-4--|
|-Rhy Fig 2

  ~~~~~~~~~~~~~~~~~~~~                ~~~~~~~~~~~~~~~~
  W                H.            Q    W
|----------------|------------------|----------------|
|-6--------------|-7-----------/10--|-9--------------|
|-6--------------|-7-----------/10--|-9--------------|
|-6--------------|-7-----------/10--|-9--------------|
|----------------|--------------/7--|----------------|
|-3--------------|-6----------------|-8--------------|
|
| ~  PM--------|   ~~  PM----|        ~  PM--------|
| Q  E E E E E E   Q   E E E E   Q    Q  E E E E E E
|----------------|------------------|----------------|
|----------------|------------------|----------------|
|----------------|------------------|----------------|
|----------------|------------------|----------------|
|----------------|------------------|----------------|
|-3--3-3-3-3-3-3-|-6---6-6-6-6---0--|-8--8-8-8-8-8-8-|


           To Coda
 ~~~~~~~~~~~~~~~~~~~~~~~
   W                 H.            Q
|-----------------|-----------------------||
|-12--------------|-13------------<3>-----||
|-12--------------|-13------------<3>-----||
|-12--------------|-13--------------------||
|-----------------|-----------------------||
|--9--------------|--9--------------------||
|
|  ~~ PM--------|    ~~~ PM----|
|  Q  E E E E E E    Q   E E E E   Q
|-----------------|-----------------------||
|-----------------|-----------------------||
|-----------------|-----------------------||
|-----------------|-----------------------||
|-----------------|-----------------------||
|--9--9-9-9-9-9-9-|--9---9-9-9-0-/(9)\----||
                            end Rhy Fig 2-|

w/Rhy Fig 1 x2
   +Q      E E E.  S Q     +Q.     S S a S S  S S Q     +Q   +Q    H      W
|------------------------|----------------------------|-----------------|------|
|-(<3>)\-----------------|------------------------7---|-(7)--(7)\-------|------|
|-(<3>)\-----------------|-------------3h4p3-/7p6-----|-----------------|------|
|------------4-4h==5-2---|-(2)-----4h5----------------|-----------------|------|
|------------------------|----------------------------|-----------------|------|
|------------------------|----------------------------|-----------------|------|



  W          W          E.  S +E   E S  +E. Q    E Q.   +H
|----------|----------|----!x-(x)-!x-x-!(x)-x--|----------------|
|----------|----------|----!x-(x)-!x-x-!(x)-x--|----------------|
|----------|----------|----!x-(x)-!x-x-!(x)-x--|---4----(4)\----|
|----------|----------|------------------------|---4----(4)\----|
|----------|----------|------------------------|---4----(4)\----|
|----------|----------|------------------------|----------------|


                    ~~
   a     +H         Q    +S   S  S  S
|-14b15-(14)-------14---(14)-12-14----|
|----------------------------------15-|
|-------------------------------------|
|-------------------------------------|
|-------------------------------------|
|-------------------------------------|
|
| Gtr II
|         ~~~~   PM-------------|
|         E. s E E  E E   E      E
|-------------------------------------|
|-------------------------------------|
|-------------------------------------|
|-------------------------------------|
|-------------------------------------|
|---------2--0---0--0-0---0------0----|
|-Riff A                   end Riff A-|

w/Riff A x15
   S   S  S  S  S  S  S  S  S  S  S  S  S  S  E
|-12---------------------------------------------|
|-----14-15-12-14-11-12----11--------------------|
|-----------------------14----12p11--------------|
|-----------------------------------12-----------|
|--------------------------------------13s12p10\-|
|------------------------------------------------|



     ~~     ~~     ~~       ~~                                      ~
   S E.   S E.   S E.   a S E.     S  T T S S S S S a S S a S S S a Q
|--------------------------------|---------------------------------------|
|--------------------------------|---------------------------------------|
|-/9s8----9s7----9s6----6s9s5----|-4--5p4s3-4-3-2-0----------------------|
|--------------------------------|------------------3s4-0----------------|
|--------------------------------|------------------------3s4-0---5s7----|
|--------------------------------|------------------------------0--------|



   |----3----|    |------3------|  |---3---|     |----3-----|
   E   a  E  E    E  a  E    a  E  E  E    E  a  E  a E   a E
|-12--14s10-12---14-14s12---12s10-12-14---12-12s10-10s9---9s7-|
|-------------------------------------------------------------|
|-------------------------------------------------------------|
|-------------------------------------------------------------|
|-------------------------------------------------------------|
|-------------------------------------------------------------|



  |---3----|    |---3---|
  E   E  a E    E E   a E a a Q   +E  S  S
|-9--10-10s9---10-9---9s7-9p7s6---(6)--------|
|---------------------------------------(8)--|
|--------------------------------------------|
|--------------------------------------------|
|--------------------------------------------|
|--------------------------------------------|



                                                   ~~
  T T T T T T T T T T T T T T T T T T T T T  T S S E.
|-6h7p6-------6h7p6-------6h7p6-------6h7p6-------------|
|-------8p7h8-------8p7h8-------8p7h8-------h8-8-7------|
|--------------------------------------------------7----|
|-------------------------------------------------------|
|-------------------------------------------------------|
|-------------------------------------------------------|



  |----6-----| |----6----|
  T T  T T T T T T T T T T  T T T T  E   +E    +E    Q
|--------------------------------------------------------|
|--------------------------------------------------------|
|-7h9h11p9p7s6h7h9p7p6s7h9h11p9p7s6----------------------|
|-----------------------------------[8]-([8])-([8])\-----|
|----------------------------------------------------x---|
|----------------------------------------------------x---|



                    |--------10---------|
  T T T T T T T T T T T T T T T T T   T T T T T T T T T T T T T T T T T T T T T
|----------------------------------------------------------------------------------|
|----------------------------------------------------------------------------------|
|-----------------------------------------6h7h9p7p6-6h7p6p4------------------------|
|-----------------------4h5h7p5p4s5h==7h9-------------------7p4h5h7p4h5h7p5p4s5h===|
|-------2h4h5p4p2s4h5h7------------------------------------------------------------|
|-2h3h5----------------------------------------------------------------------------|



  |---5---|                                                             |----5----|
  T T T T T T T T T  T T T  T T T  T T  T T  T  T T  T  T  T T T T   T  T T  T  T T
|------------------------------------------------------------------------------------|
|------------------------------------------------------------------------------------|
|-----6h7h9p7p6s7h9h11p9p7------------------------8h10h12p10p8s7h8----------------9h=|
|-7h9----------------------11p7h9h11p7-11p8h10h12------------------h10-12p9h11h12----|
|------------------------------------------------------------------------------------|
|------------------------------------------------------------------------------------|


                          |-----5-----|                          |---3---|  |--------------12---------------|
   T  T  T T  T  T  T  T  T  T  T  T  T  T  T  T  T  T  T  T  T  E  E    E  T  T  T  T  S   T   T  T  T  T  T
|-------------------------------------------------------------------------------------------------------------|
|---------------------------------------------------------------12------12-14h15p14p12---------12h14h15p14p12-|
|-11h12p11p9-------------11h12h14p12p11-14h15p14p12----12h14h15----15------------------15p(12)----------------|
|------------14p11h12h14----------------------------15--------------------------------------------------------|
|-------------------------------------------------------------------------------------------------------------|
|-------------------------------------------------------------------------------------------------------------|

                                     ~~~~~~~
                            |--3--|
   T  T  T  T  T   T  T  T  S  S  S  E  +Q     +E    E
|-------------------------------------------------------|
|-12h14h15p14p12-----12h14h15p14p12---------------------|
|----------------h15----------------15-(15)---(15)\p(0)-|
|-------------------------------------------------------|
|-------------------------------------------------------|
|-------------------------------------------------------|



   a      +Q.      E   S    S    S    S    S    S    S    S
|-19b22==(22)r====19-[19]-[18]-[17]-[19]-[17]-----------------|
|---------------------------------------------[17]------[17]s=|

|--------------------------------------------------[16]-------|
|-------------------------------------------------------------|
|-------------------------------------------------------------|
|-------------------------------------------------------------|



                                                      ~~
    S    S    S    S  S   S   S  S  S  S  S  S  S  S  E
|-------------------------------------------------------|
|-[15]------[15]s[14]---[13]-14-------------------------|
|------[14]---------------------15-13s11-------------12-|
|-------------------------------------------------------|
|----------------------------------------13-14-13-14----|
|-------------------------------------------------------|



                                                             |-----5-----|
   S   S  S  S  E.    S  T  T  T  T  T  T  T  T  T  T  T  T  T  T  T  T  T
|--------------------15-12-14-15-14-12-------------------------------------|
|--------------------------------------15-12-14-15-14-12-------------------|
|-12--------11-11----------------------------------------15-12-14-15-14-12-|
|--------------------------------------------------------------------------|
|-----12-13----------------------------------------------------------------|
|--------------------------------------------------------------------------|



    |--3---|               |-----5-----|
    S   S  S  T  T  T   T  T  T  T  T  T  S  T  T  T  T  S  E       E       E
|----------------------------------------------------------------------------------|
|----------------------------------------------------------------------------------|
|----------------------------------------------------------------------------------|
|-h17--14h16h17p16p14--------------------------------------------------------------|
|---------------------h17-14h16h17p16p14s13-13h14h16p14p13-12b12.5-12b12.5-12b12.5-|
|----------------------------------------------------------------------------------|



                   \1.5_____________/0.5___
   a      +E.  S  +H          +E   +E
|-----------------------------------------|
|-17b19==(19)r17-(17)--------(17)-(17)----|
|-----------------------------------------|
|-----------------------------------------|
|-----------------------------------------|
|-----------------------------------------|
|
|          ~~~~~
|          E.  s   Q      H
|-----------------------------------------|
|-----------------------------------------|
|-----------------------------------------|
|-----------------------------------------|
|-----------------------------------------|
|----------2---0--------------------------|


    \0.5____/0.5____\0.5____________|
   +E.     +T      +T      +H      +Q
|----------------------------------------||
|-(17)----(17)----(17)----(17)----(17)\--||
|----------------------------------------||
|----------------------------------------||
|----------------------------------------||
|----------------------------------------||


w/Rhy Fig 1 x8
  Q    E E E.  S Q     +Q.     E S S S S a Q
|--------------------|-------------------------|
|--------------------|-------------------------|
|--------------------|---------------3---3s4---|
|--------4-4h==5-2---|-(2)-----4-4h5---5-------|
|--------------------|-------------------------|
|--------------------|-------------------------|



  +E  E    E  S   S   S   S   S   S   S   E.     Q    E  S   S  S S S  S  E E
|----------------------------------------------|---------------------------------|
|----------------------------------------------|---------------------------------|
|-(4)-3\-------------------------<5>-----------|---------------------------------|
|------------------------<5>-<4>---------<5>---|---------------------------------|
|----------------<5>-<4>-------------<4>-------|---------------------------------|
|------------<4>-------------------------------|--------/x\-/x\-x-x---/x\-x------|



  Q    E S S E.   S Q     +Q    S S E S S E  Q
|-----------------------|------------------------|
|-----------------------|------------------------|
|-----------------------|-----------------3-/7---|
|--------4h5-4----5p2---|-(2)---4s5-4-4h5--------|
|-----------------------|------------------------|
|-----------------------|------------------------|



                                             D.S. al Coda
                                  /1.5______________|
          ~~~~~~
  +Q.     E +H           +Q      +Q        +Q      +Q
|---------------------|--------------------------------------||
|---------------------|--------------------------------------||
|-(7)-----6-(6)-------|-([6])---([6])-----([6])---([6])\-----||
|---------------------|--------------------------------------||
|---------------------|--------------------------------------||
|---------------------|--------------------------------------||



  &
   ~~~~~~~~~~~~~~~~~~~~~~~~~~~~~~~~~~~~~~~~~~~~~~~~~~~~~
   W                 W                  W
|-----------------|-----------------|------------------|
|-13--------------|-14--------------|-/16--------------|
|-13--------------|-14--------------|-/16--------------|
|-13--------------|-14--------------|-/16--------------|
|-----------------|-----------------|------------------|
|--9--------------|--9--------------|--/9--------------|
|
|  ~~ PM--------|    ~~ PM--------|     ~~~PM--------|
|  Q  E E E E E E    Q  E E E E E E     Q  E E E E E E
|-----------------|-----------------|------------------|
|-----------------|-----------------|------------------|
|-----------------|-----------------|------------------|
|-----------------|-----------------|------------------|
|-----------------|-----------------|------------------|
|--9--9-9-9-9-9-9-|--9--9-9-9-9-9-9-|---9--9-9-9-9-9-9-|


 ~~~~~~~~~~~~~~~~~~~~~~
   W                 W                  W
|-----------------|-----------------|-------------------------|
|-18--------------|-18--------------|-/14\--------------------|
|-18--------------|-18--------------|-/14\--------------------|
|-18--------------|-18--------------|-/14\--------------------|
|-16--------------|-16--------------|-------------------------|
|-----------------|-----------------|-------------------------|
|
|  ~~ PM--------|    ~~ PM--------|     ~~~~
|  Q  E E E E E E    Q  E E E E E E     E  +E   Q  Q    Q
|-----------------|-----------------|-------------------------|
|-----------------|-----------------|-------------------------|
|-----------------|-----------------|-------------------------|
|-----------------|-----------------|-------------------------|
|-----------------|-----------------|-------------------------|
|--9--9-9-9-9-9-9-|--9--9-9-9-9-9-9-|---9--(9)\-------/(9)\---|

w/Rhy Fig 1 x16
  Q    E E E.  S Q     +Q.     E S S S S a Q
|--------------------|-------------------------|
|--------------------|-------------------------|
|--------------------|---------------3---3s4---|
|--------4-4h==5-2---|-(2)-----4-4h5---5-------|
|--------------------|-------------------------|
|--------------------|-------------------------|



  +E   Q.        +Q      Q     E   E   Q   H
|----------------------------|---------------------|
|----------------------------|----!x---------------|
|-(4)-[3]-------([3])\-------|----!x---------------|
|----------------------------|---------------------|
|----------------------------|---------------------|
|----------------------------|---------------------|



                                         ~~~~~
  Q    E E E.   S Q     +Q.     E S S E  Q
|---------------------|----------------------|
|---------------------|----------------------|
|---------------------|---------------3-/7---|
|--------4-4----5p2---|-(2)-----4-4h5--------|
|---------------------|----------------------|
|---------------------|----------------------|



                              /1.5______|
 ~~~~~
  +H.           Q     +Q      Q        +E    E Q
|-------------------|--------------------------------|
|-------------------|--------------------------------|
|-(7)-----------6---|-(6)---/<3>------(<3>)\---------|
|-------------------|--------------------------------|
|-------------------|--------------------------x\----|
|-------------------|--------------------------------|



  E   E   E  E  E.    S Q     +Q.      E  S  S  E  a  Q
|---------------------------|-----------------------------|
|---------------------------|------------------11-11s12---|
|-----------11-11----12s9---|-(9)-----11-11h12------------|
|----/x---------------------|-----------------------------|
|---------------------------|-----------------------------|
|---------------------------|-----------------------------|



   +Q.      E  +H           E.  S E  E H
|-------------------------|----!x---!x-----------|
|-(12)-----11-(11)\-------|----!x---!x-----------|
|-------------------------|----!x---!x-----------|
|-------------------------|----------------------|
|-------------------------|----------------------|
|-------------------------|----------------------|



                     ~~~~~~~~~~                          ~~~~~~
  Q    E  E  E.    S Q     +Q.      E  S  S  E   a      +Q
|------------------------|------------------------------------|
|------------------------|------------------11-/14b15==(15)---|
|--------11-11----12s9---|-(9)-----11-11h12-------------------|
|------------------------|------------------------------------|
|------------------------|------------------------------------|
|------------------------|------------------------------------|



 ~~~~~~~~~~~~~~~~~~~~~~~~~~~
   +W                    W
|---------------------|-------------------||
|-(14)r---------------|-14----------------||
|---------------------|-------------------||
|---------------------|-------------------||
|---------------------|-------------------||
|---------------------|-------------------||



    E5     F#5  F#5(type 2)                E5      F#5     F#5(type 2)
    Gtr II
     E.    S  E  E  E     E    E     E       E.    S  E     E    E      E      E      E
     |     |     |  |     |    |     |       |     |        |    |      |      |      |
     /     /     /  /     /    /     /       /     /        /    /      /      /      /

    Gtr I
     ~~~~~~~~~~~~~~~~~~~~~~~~~~~~~~~~~~~~~~~~~~~
     W                                      +H                   E.        S  +E      E
||--18-----------------------------------|-(18)-----------------18--------15-(15)----14-|
||o--------------------------------------|----------------------------------------------|
||---------------------------------------|----------------------------------------------|
||---------------------------------------|----------------------------------------------|
||o--------------------------------------|----------------------------------------------|
||---------------------------------------|----------------------------------------------|
|
|       Gtr III
|    E   E    E  E  S  S  S S  S  S  S S     E   E    S  S  S S  S   S  S  S   S   S  E
||---------------------------------------|----------------------------------------------|
||o--------------------------------------|----------------------------------------------|
||------11---11-11-11-12-11-9-11-12-11-9-|------11---11-12-11-9-11--12-11--9--11--12-11-|
||---------------------------------------|----------------------------------------------|
||o--------------------------------------|----------------------------------------------|
||---------------------------------------|----------------------------------------------|



  E5     F#5  F#5(type 2)
   E.    S  E  E       E       E       E       E
   |     |     |       |       |       |       |
   /     /     /       /       /       /       /

   ~~~~~~~~~~~~~~~~~~~~~~~~~~~~~~~~~~~~~~~~~~~~~~~
   W
|-17-----------------------------------------------|
|--------------------------------------------------|
|--------------------------------------------------|
|--------------------------------------------------|
|--------------------------------------------------|
|--------------------------------------------------|
|
|  E   E    E  E       S   S   S   S   S   S   S S
|--------------------------------------------------|
|--------------------------------------------------|
|-----11---11-11------11--12--11---9--11--12--11-9-|
|--------------------------------------------------|
|--------------------------------------------------|
|--------------------------------------------------|
|
|Gtr IV
|  Q        E  S   S   S   S   S   S   S   E.
|--------------------------------------------------|
|--------------------------------------------------|
|---------------------------------<5>--------------|
|-------------------------<5>-<4>---------<5>------|
|-----------------<5>-<4>-------------<4>----------|
|-------------<4>----------------------------------|


  E5      F#5     F#5(type 2)
   E.    S  E     E       E      E       E   E
   |     |        |       |      |       |   |
   /     /        /       /      /       /   /

   ~~~~
  +H                      E.        S   +E   E
|-(17)--------------------17--------15--(15)-14--||
|-----------------------------------------------o||
|------------------------------------------------||
|------------------------------------------------||
|-----------------------------------------------o||
|------------------------------------------------||
|
|  E   E    S  S  S   S   S   S  S  S    E   E
|------------------------------------------------||
|-----------------------------------------------o||
|------11---11-12-11---9--11--12-11--9---11------||
|------------------------------------------------||
|-----------------------------------------------o||
|------------------------------------------------||
|
|Gtr IV
|  Q        E     S   S   S   S  S  S    E   E
|------------------------------------------------||
|-----------------------------------------------o||
|------------------------------------------------||
|------------------------------------------------||
|-----------------------------------------------o||
|-----------------/x\-/x\--x---x----/x\---x------||







  E5     F#5  F#5(type 2)                E5      F#5     F#5(type 2)
   E.    S  E  E  E     E    E     E       E.    S  E     E    E      E      E      E
   |     |     |  |     |    |     |       |     |        |    |      |      |      |
   /     /     /  /     /    /     /       /     /        /    /      /      /      /

   ~~~~~~~~~~~~~~~~~~~~~~~~~~~~~~~~~~~~~~~~~~~
   W                                      +H                   E.        S  +E      E
|-18-----------------------------------|-(18)-----------------18--------15-(15)----14-|
|--------------------------------------|----------------------------------------------|
|--------------------------------------|----------------------------------------------|
|--------------------------------------|----------------------------------------------|
|--------------------------------------|----------------------------------------------|
|--------------------------------------|----------------------------------------------|
|
|  E   E    E  E  S  S  S S  S  S  S S     E   E    S  S  S S  S   S  S  S   S   S  E
|--------------------------------------|----------------------------------------------|
|--------------------------------------|----------------------------------------------|
|-----11---11-11-11-12-11-9-11-12-11-9-|------11---11-12-11-9-11--12-11--9--11--12-11-|
|--------------------------------------|----------------------------------------------|
|--------------------------------------|----------------------------------------------|
|--------------------------------------|----------------------------------------------|


  E5     F#5  F#5(type 2)
   E.    S  E  E   E      E     E      E
   |     |     |   |      |     |      |
   /     /     /   /      /     /      /

   ~~~
                                       |---3---|
   Q        E  E  +Q           +E      S  S    S
|-17------------------------------------------------|
|-------------17-(17)---------(17)----15p14s==12h===|
|---------------------------------------------------|
|---------------------------------------------------|
|---------------------------------------------------|
|---------------------------------------------------|
|
|  E   E    E  E   S   S  S S   S   S  S    S
|---------------------------------------------------|
|---------------------------------------------------|
|-----11---11-11--11--12-11-9--11--12-11----9-------|
|---------------------------------------------------|
|---------------------------------------------------|
|---------------------------------------------------|


  E5                F#5             F#5(type 2)
   E.               S     E          E             E         E    E   E
   |                |                |             |         |    |   |
   /                /                /             /         /    /   /

               |---3---|  |---3---|  |----5-----|
   T  T  T  T  S  S    S  S  S    S  T T  T   T T  T T  T T  E   +Q
|-----------------------------------------------------------------------|
|-14p12h14p12s11h12p==11h12p11s===8h11p8h11p==8s7h=8p7h=8p7s=5---(5)\---|
|-----------------------------------------------------------------------|
|-----------------------------------------------------------------------|
|-----------------------------------------------------------------------|
|-----------------------------------------------------------------------|
|
|  E           E          S     S    S      S      S    S    S S  E   E
|-----------------------------------------------------------------------|
|-----------------------------------------------------------------------|
|-------------11---------11----12---11------9-----11---12---11-9-11-----|
|-----------------------------------------------------------------------|
|-----------------------------------------------------------------------|
|-----------------------------------------------------------------------|


  E5    F#5  F#5(type 2)                        E5     F#5     F#5(type 2)
  E.    S  E  E     E      E      E       E      E.    S  E     E     E     E    E     E
  |     |     |     |      |      |       |      |     |        |     |     |    |     |
  /     /     /     /      /      /       /      /     /        /     /     /    /     /

  Q        E  S  S +E      S T T  S  T T  E     +Q        E.      S   Q          Q
|---------------------------------------------|------------------------------------------|
|---------\7-\7-\7-(7)p====5h7p5s=3h=5p3s=2---|-(2)--------------------------------------|
|---------------------------------------------|----------/4p======3\---------------------|
|---------------------------------------------|-----------------------2---------/4-------|
|---------------------------------------------|------------------------------------------|
|---------------------------------------------|------------------------------------------|
|
| E   E    E  E     S   S  S S    S  S    S S    E   E    S  S  S S   S  S  S S  S  S  E
|---------------------------------------------|------------------------------------------|
|---------------------------------------------|------------------------------------------|
|----11---11-11----11--12-11-9---11-12---11-9-|-----11---11-12-11-9--11-12-11-9-11-12-11-|
|---------------------------------------------|------------------------------------------|
|---------------------------------------------|------------------------------------------|
|---------------------------------------------|------------------------------------------|


  E5       F#5  F#5(type 2)
   E.      S  E  E  E      E    E       E
   |       |     |  |      |    |       |
   /       /     /  /      /    /       /


  +E  a  S S  E  E +Q          +E       E
|-------------------------------------------|
|-------------------------------------------|
|-------------------------------------------|
|-(4)-4s=5s4p=2--4-(4)---------(4)/---------|
|-------------------------------------------|
|-------------------------------------------|
|
|  E     E    E  E  S   S  S S  S    S  S S
|-------------------------------------------|
|-------------------------------------------|
|-------11---11-11-11--12-11-9-11---12-11-9-|
|-------------------------------------------|
|-------------------------------------------|
|-------------------------------------------|



           E5       F#5
           E.     S  E     E     +H
           |      |        |      |
           /      /        /      /
           ~~~~~
  a      +H                      H
|-22b24==(24)r-----------------------------------------*|
|------------------------------([29])\-----------------*|
|------------------------------------------------------*|
|------------------------------------------------------*|
|------------------------------------------------------*|
|------------------------------------------------------*|
|
|              E    S  S  S S    S     S  S S  E E
|------------------------------------------------------*|
|------------------------------------------------------*|
|--------------11---11-12-11-9---11----12-11-9-11------*|
|------------------------------------------------------*|
|------------------------------------------------------*|
|------------------------------------------------------*|


albums
tabs

 

1