Search tabs:
Browse artists: 0-9 | A | B | C | D | E | F | G | H | I | J | K | L | M | N | O | P | Q | R | S | T | U | V | W | X | Y | Z
/ Joe Satriani / Not of This Earth (1986) / The Headless Horseman guitar tab

This is all two hand tapping to notes on the 12th fret are tapped with your 
right hand the rest with your left

Play bar 4 Times
          P         P         P         P
E|------------------------------------------|
B|------------------------------------------|
G|------------------------------------------|
D|------------------------------------------|
A|-----12--0-----12--0-----12--0-----12--0--|
E|--5---------5---------5---------5---------|

S/S (see note later)
      H      P         P         P         P
E|------------------------------------------------|
B|------------------------------------------------|
G|o-----------------------------------------------|
D|o-----------------------------------------------|
A|---------12--0-----12--0-----12--0-----12--0----|
E|---7--8---------5---------3---------5-----------|

      H      P         P         P         P
E|-----------------------------------------------|
B|-----------------------------------------------|
G|-----------------------------------------------|
D|-----------------------------------------------|
A|--------12--0-----12--0-----12--0-----12--0----|
E|--7--8---------5---------3---------5-----------|

      H      P          P     H      P         P
E|-------------------------------------------------|
B|-------------------------------------------------|
G|-------------------------------------------------|
D|-------------------------------------------------|
A|--------12--0------12--0--------12--0-----12--0--|
E|--7--8---------10---------7--8---------5---------|

1.|-------------------------------------------|
          P         P         P         P
E|--------------------------------------------|
B|--------------------------------------------|
G|-------------------------------------------o|
D|-------------------------------------------o|
A|-----12--0-----12--0-----12--0-----12--0----|
E|--3---------3---------5---------5-----------|

2.|-----------------------------------------
          P         P         P         P
E|------------------------------------------|
B|------------------------------------------|
G|------------------------------------------|
D|------------------------------------------|
A|-----12--0-----12--0-----12--0-----12--0--|
E|--3---------3---------5---------5---------|

Play bar Twice
      H      P         P         P         P
E|---------------------------------------------|
B|---------------------------------------------|
G|---------------------------------------------|
D|--------12--0-----12--0-----12--0-----12--0--|
A|--7--8---------5---------3---------3---------|
E|---------------------------------------------|

      H      P          P     H      P         P
E|-------------------------------------------------|
B|-------------------------------------------------|
G|-------------------------------------------------|
D|--------12--0------12--0--------12--0-----12--0--|
A|--7--8---------10---------7--8---------5---------|
E|-------------------------------------------------|

E|------------------------------------------|
B|------------------------------------------|
G|------------------------------------------|
D|-----12--0-----12--0-----12--0------------|
A|--2---------2---------3---------3--12--0--|
E|------------------------------------------|

Play bar Twice
      H      P         P         P         P
E|-----------------------------------------------|
B|-----------------------------------------------|
G|-----------------------------------------------|
D|-----------------------------------------------|
A|--------12--0-----12--0-----12--0-----12--0----|
E|--7--8---------5---------3---------5-----------|

      H      P          P     H      P         P
E|-------------------------------------------------|
B|-------------------------------------------------|
G|-------------------------------------------------|
D|-------------------------------------------------|
A|--------12--0------12--0--------12--0-----12--0--|
E|--7--8---------10---------7--8---------5---------|

          P         P         P         P
E|------------------------------------------|
B|------------------------------------------|
G|------------------------------------------|
D|------------------------------------------|
A|-----12--0-----12--0-----12--0------------|
E|--3---------3---------5---------5--12--0--|

      H       P           P           P           P
E|----------------------------------------------------|
B|----------------------------------------------------|
G|----------------------------------------------------|
D|----------------------------------------------------|
A|----------------------------------------------------|
E|--5--7---12--0---7---12--0---5---12--0---3---12--0--|

           P           P         P         P
E|---------------------------------------------|
B|---------------------------------------------|
G|---------------------------------------------|
D|--------------------------------------12--0--|
A|-------------------------7---------7---------|
E|--5---12--0---7---12--0-----12--0------------|

              P           P           P           P
E|----------------------------------------------------|
B|----------------------------------------------------|
G|----------------------------------------------------|
D|--7/10---12--0---9---12--0---7---12--0---5---12--0--|
A|----------------------------------------------------|
E|----------------------------------------------------|

           P           P      H       P      H       P
E|-------------------------------------------------------|
B|-------------------------------------------------------|
G|-------------------------------------------------------|
D|--7---12--0---9---12--0---6--7---12--0---6--7---12--0--|
A|-------------------------------------------------------|
E|-------------------------------------------------------|

      H       P      H       P      H       P      H       P
E|-------------------------------------------------------------
B|-------------------------------------------------------------
G|-------------------------------------------------------------
D|--6--7---12--0---6--7---12--0---6--7---12--0---6--7---12--0--
A|-------------------------------------------------------------
E|-------------------------------------------------------------

     H       P      H      P
E------------------------------|
B------------------------------|
G------------------------------|
D--6--7---12--0---6--7---------|
A-----------------------12--0--|
E------------------------------|

Play bar Twice
      H      P         P         P         P
E|---------------------------------------------|
B|---------------------------------------------|
G|---------------------------------------------|
D|---------------------------------------------|
A|--------12--0-----12--0-----12--0-----12--0--|
E|--7--8---------5---------3---------5---------|

      H      P          P     H      P         P
E|-------------------------------------------------|
B|-------------------------------------------------|
G|-------------------------------------------------|
D|-------------------------------------------------|
A|--------12--0------12--0--------12--0-----12--0--|
E|--7--8---------10---------7--8---------5---------|

                                            Second time, go to Coda
          P         P         P         P
E|------------------------------------------|
B|------------------------------------------|
G|------------------------------------------|
D|------------------------------------------|
A|-----12--0-----12--0-----12--0-----12--0--|
E|--3---------3---------5---------5---------|

E|--------------------------------------------------------------|
B|--------------------------------------------------------------|
G|--------------------------------------------------------------|
D|--------------------------------------------------------------|
A|-----12--0-----12--0-----12--0-----12--0-----12--0-----12--0--|
E|--5---------5---------5---------5---------5---------5---------|

Play next 2 bars four times
          P           P         P           P
E|----------------------------------------------|
B|----------------------------------------------|
G|----------------------------------------------|
D|------------------------4---------------------|
A|-----12--0---3---12--0-----12--0---3---12--0--|
E|--2-------------------------------------------|

          P      P  H  P         P         P
E|------------------------------------------------|
B|------------------------------------------------|
G|------------------------------------------------|
D|------------------------------------------------|
A|-----12--0---5--0--3--0-----12--0-----12--0-----|
E|--2----------------------5---------5------------|

Play bar twice
          P      P  H  P         P         P
E|---------------------------------------------|
B|---------------------------------------------|
G|---------------------------------------------|
D|---------------------------------------------|
A|-----12--0---5--0--3--0-----12--0-----12--0--|
E|--5----------------------5---------5---------|

After this bar, go back to place marked S/S at the beginning, repeat
all the way through until you get to \"Second time go to Coda\" note -
then skip to Coda section - got it? :) 
          P      P  H  P          P         P         P         P
E|------------------------------------------------------------------|
B|------------------------------------------------------------------|
G|------------------------------------------------------------------|
D|------------------------------------------------------------------|
A|-----12--0---5--0--3--0------12--0-----12--0-----12--0-----12--0--|
E|--5-----------------------5---------5---------5---------5---------|


Coda
Play next two bars 4 times
      H       P      H       P      H       P         P
E|--------------------------------------------------------|
B|--------------------------------------------------------|
G|--------------------------------------------------------|
D|----------------------------------------------5---------|
A|--6--7---12--0---5--6---12--0---3--5---12--0-----12--0--|
E|--------------------------------------------------------|

          P           P         P         P
E|------------------------------------------------|
B|------------------------------------------------|
G|------------------------------------------------|
D|------------------------------------------------|
A|-----12--0---3---12--0-----12--0-----12--0------|
E|--3---------------------5---------5-------------|

Play next bar three times
          P           P         P         P
E|------------------------------------------------|
B|------------------------------------------------|
G|------------------------------------------------|
D|------------------------------------------------|
A|-----12--0---3---12--0-----12--0-----12--0------|
E|--3---------------------5---------5-------------|

Play next bar twice
          P         P         P         P
E|------------------------------------------|
B|------------------------------------------|
G|------------------------------------------|
D|------------------------------------------|
A|-----12--0-----12--0-----12--0-----12--0--|
E|--3---------3---------3---------3---------|


E|------------------------------------------|-----||
B|------------------------------------------|-----||
G|------------------------------------------|-----||
D|------------------------------------------|-----||
A|-----12--0-----12--0-----12--0-----12--0--|-----||
E|--5---------5---------5---------5---------|--5--||


Joe Satriani albums
2004 Is There Love in Space?
2002 Strange Beautiful Music
2000 Engines of Creation
1998 Crystal Planet
1995 Joe Satriani
1993 Time Machine
1992 The Extremist
1989 Flying in a Blue Dream
1987 Surfing With the Alien
1986 Not of This Earth
Not of This Earth tabs
01Not of This Earth tabbass tab
03Rubina tabbass tab
04Memories tabbass tab
05Brother John tabbass tab
07Driving at Night tabbass tab
08Hordes of Locusts tabbass tab
10The Headless Horseman tabbass tab

 

1