Search tabs:
Browse artists: 0-9 | A | B | C | D | E | F | G | H | I | J | K | L | M | N | O | P | Q | R | S | T | U | V | W | X | Y | Z
/ Joe Satriani / Strange Beautiful Music (2002) / What Breaks a Heart guitar tab

This is a great song, there are a lot of crappy mp3's floating around so buy the cd!
Anyway, Ive done the best i can, for the moment. This is perfect, except for the missing parts.



Gtr1
|-------|-------|-------|-------|-------|-------|-------|
|-------|-------|-------|-------|-------|-------|-------|
|-------|-------|-------|-------|-------|-------|-------|
|---2---|-------|---5---|---3---|---2---|-------|---5---|
|-0-----|---3---|-3-----|-------|-0-----|---3---|-3-----|
|-------|-1-----|-------|-4-----|-------|-1-----|-------|

Gtr1
|---------|------|------|-------|-------|-------|------|
|--N.H.---|------|------|-------|-------|-------|------|
|--<5>----|------|------|-------|-------|-------|------|
|---------|---2--|------|---5---|---3---|---2---|------|
|---------|-0----|---3--|-3-----|-------|-0-----|---3--|
|-3-------|------|-1----|-------|-4-----|-------|-1----|
|Gtr2     |      |      |       |       |       |      |
|---------|------|------|-------|-------|-------|------|
|---------|------|------|-------|-------|-------|------|
|---------|------|------|-------|-------|-------|------|
|---------|------|------|-------|-------|-------|------|
|---------|------|/7----|-------|/8-\\3--|/5-/(7)|/7----|
|----/5-7-|/8----|------|-------|-------|-------|------|

Gtr1
|-------|---------|------|------|-------|--------------|
|-------|---------|------|------|-------|--------------|
|-------|---------|------|------|-------|--------------|
|---5---|---------|---2--|------|---5---|----3---------|
|-3-----|---5-----|-0----|---3--|-3-----|--------------|
|-------|-3-------|------|-1----|-------|-4------------|
|Gtr2   |         |      |      |       |              |
|-------|---------|------|------|-------|--------------|
|-------|---------|------|------|-------|--------------|
|-------|---------|------|------|-------|--------------|
|-------|---------|------|------|-------|--------------|
|-------|---------|------|/7----|-------|/8--/10-8-----|
|-------|----/5-7-|/8----|------|-------|-----------8--|

Gtr1
|---------|------|-------|-------|
|---------|------|-------|-------|
|---------|------|-------|-------|
|---2-----|------|---5---|-------|
|-0-------|---3--|-3-----|---5---|
|---------|-1----|-------|-3-----|
|Gtr2     |      |       |       |
|---------|------|-------|-------|
|---------|------|-------|-------|
|---------|------|-------|-------|
|---------|------|-------|-------|
|---------|------|-------|-------|
|/10--/12-|-8----|-------|-------|

Gtr1                                          Cont. sim.
|---------|---------------|------------|-----------------|
|-----6---|---------------|------3-----|-----------------|
|---------|---------5-----|------------|---------4-------|
|---7-----|---------------|---5--------|-----------------|
|-5-------|-----7---------|-3----------|-----5-----------|
|---------|-5-------------|------------|-3---------------|
|Gtr2     |               |            |                 |
|-----13--|-12---10-------|------------|-----------------|
|---------|---------13----|---13-13-13-|-12---10---------|
|---------|---------------|------------|---------12---9--|
|---------|---------------|------------|-----------------|
|---------|---------------|------------|-----------------|
|---------|---------------|------------|-----------------|
|Gtr3     |               |            |                 |
|-----17--|-15---13-------|------------|-----------------|
|---------|---------17----|---17-15-17-|-15----13--------|
|---------|---------------|------------|----------16--12-|
|---------|---------------|------------|-----------------|
|---------|---------------|------------|-----------------|
|---------|---------------|------------|-----------------|

Gtr2
|-----13--|-12---10-------|-----------|-10----|---13--|
|---------|---------13----|--13-13-13-|-------|-------|
|-10------|---------------|-----------|-------|-------|
|---------|---------------|-----------|-------|-------|
|---------|---------------|-----------|-------|-------|
|---------|---------------|-----------|-------|-------|
|Gtr3     |               |           |       |       |
|-----17--|-15---13-------|-----------|-------|---17--|
|---------|---------17----|--17-15-17-|-15----|-------|
|-14------|---------------|-----------|-------|-------|
|---------|---------------|-----------|-------|-------|
|---------|---------------|-----------|-------|-------|
|---------|---------------|-----------|-------|-------|

Gtr2
|-12---10-------|-----------|-----------------|-----13--|
|---------13----|--13-13-13-|-12---10---------|---------|
|---------------|-----------|---------12---9--|-10------|
|---------------|-----------|-----------------|---------|
|---------------|-----------|-----------------|---------|
|---------------|-----------|-----------------|---------|
|Gtr3           |           |                 |         |
|-15---13-------|-----------|-----------------|-----17--|
|---------17----|--17-15-17-|-15---13---------|---------|
|---------------|-----------|---------16---12-|-14------|
|---------------|-----------|-----------------|---------|
|---------------|-----------|-----------------|---------|
|---------------|-----------|-----------------|---------|

Gtr2
|-12---10-------|--------12-|-10----|
|---------13----|--13-13----|-------|
|---------------|-----------|-------|
|---------------|-----------|-------|
|---------------|-----------|-------|
|---------------|-----------|-------|
|Gtr3           |           |       |
|-15---13-------|-----------|-15----|
|---------17----|--17-15-17-|-------|
|---------------|-----------|-------|
|---------------|-----------|-------|
|---------------|-----------|-------|
|---------------|-----------|-------|

Gtr2
|----------------|--------------|----------------|
|----------------|--------------|----------------|
|----------------|--------------|----------------|
|/10--9-7-9------|--10-9-7-9----|/10--9-7-9------|
|------------10--|--------------|------------10--|
|----------------|--------------|----------------|

Gtr2
|----------------|-------------------|-----------------|
|----------------|--------10---------|--------10-------|
|----------------|-----10----12------|-----10----12----|
|--10p9/10/12----|-/12-----------12--|-/12-------------|
|----------------|-------------------|-----------------|
|----------------|-------------------|-----------------|

Gtr2
|-------------------|--------17-15----|
|--------13-12--15--|-/15-18----------|
|-/12-14------------|-----------------|
|-------------------|-----------------|
|-------------------|-----------------|
|-------------------|-----------------|

Gtr1
|---------------|------------|---------------|
|---------------|-------3----|---------------|
|-5-5--4-4------|--5-5--5----|-7-7--7-7--7-7-|
|-5-5--5-5--7-7-|--5-5--5----|-7-7--7-7--7-7-|
|-3-3--3-3--3-3-|--3-3--3----|-5-5--5-5--5-5-|
|---------------|------------|-5-5--5-5--5-5-|

Gtr1
|------------|---------------|------------|---------------|
|------------|---------------|-------3----|---------------|
|--7-7--7----|-5-5--4-4------|--5-5--5----|-7-7--7-7--7-7-|
|--7-7--7----|-5-5--5-5--7-7-|--5-5--5----|-7-7--7-7--7-7-|
|--5-5--5----|-3-3--3-3--3-3-|--3-3--3----|-5-5--5-5--5-5-|
|--5-5--5----|---------------|------------|-5-5--5-5--5-5-|

Gtr1 Cont. sim.
|------------|
|------------|
|--7-7--7----|
|--7-7--7----|
|--5-5--5----|
|--5-5--5----|

Gtr2
|--------------|---------|--------------|---------|
|--------------|---------|--------------|---------|
|--------9-----|---------|--------7-----|---------|
|-7-9-10-------|---------|-7-9-10-------|---------|
|--------------|---------|--------------|---------|
|--------------|---------|--------------|---------|

Gtr2
|----------------|-----------|--------------|---------|
|----------------|-----------|--------------|---------|
|--------9--/14--|---12------|--------7-----|---------|
|-7-9-10---------|-----------|-7-9-10-------|---------|
|----------------|-----------|--------------|---------|
|----------------|-----------|--------------|---------|

Gtr1
|-0---------------|-----------------|-0---------------|
|-3---------------|-----------------|-2---------------|
|-2---------------|-----------------|-3---------------|
|-0---------------|-----------------|-0---------------|
|-----------------|-----------------|-----------------|
|-----------------|-----------------|-----------------|
|Gtr2             |                 |                 |
|-----0-----------|-----0-----------|-----0-----------|
|---6---6---8---8-|---6---6---8---8-|---6---6---8---8-|
|-7-------7---7---|-7-------7---7---|-7-------7---7---|
|-----------------|-----------------|-----------------|
|-----------------|-----------------|-----------------|
|-----------------|-----------------|-----------------|

Gtr2
|-----0--------|
|---6---6(6)---|
|-7-------7----|
|--------------|
|--------------|
|--------------|


Ok, here the whammy bar comes into play, and since
I don't have a floating trem, I can't tab out this
section. The lead guitar hits harmonics and rips
them to the moon and back with the bar. The rhythm
guitar stays on what sounds like an A minor chord
which is strummed ska-style (upstrokes on the three
high strings)...

Then the lead goes into this...
|-12p0-12p0-12h13p12p0-10p0-10p0-10h12p10p0-|
|-------------------------------------------|
|-------------------------------------------|
|-------------------------------------------|
|-------------------------------------------|
|-------------------------------------------|


|-8p0-8p0-8h10p8p0-7h8p7p0-5p0-5p0-|
|----------------------------------|
|----------------------------------|
|----------------------------------|
|----------------------------------|
|----------------------------------|


|-12p0-12p0-10h12p10p0-10p0-10p0-10h12p10p0-|
|-------------------------------------------|
|-------------------------------------------|
|-------------------------------------------|
|-------------------------------------------|
|-------------------------------------------|


|-8p0-8p0-8h10p8p0-7h8p7p0-5p0-5p0-|
|----------------------------------|
|----------------------------------|
|----------------------------------|
|----------------------------------|
|----------------------------------|


|-13p0-13p0-13h15p13p0-12p0-12p0-12h13p12p0-|
|-------------------------------------------|
|-------------------------------------------|
|-------------------------------------------|
|-------------------------------------------|
|-------------------------------------------|


|-10p0-10p0-10h12p10p0-8h10p8p0-10h12p10p0-|
|------------------------------------------|
|------------------------------------------|
|------------------------------------------|
|------------------------------------------|
|------------------------------------------|


|-widdle-widdle----------------------|
|---------------widdle---------------|
|----------------------widdle---etc--|
|------------------------------------|
|------------------------------------|
|------------------------------------|

The last bit was for fun! :P But I'll try do do the next part if i can be bothered. Sorry


Joe Satriani albums
2004 Is There Love in Space?
2002 Strange Beautiful Music
2000 Engines of Creation
1998 Crystal Planet
1995 Joe Satriani
1993 Time Machine
1992 The Extremist
1989 Flying in a Blue Dream
1987 Surfing With the Alien
1986 Not of This Earth
Strange Beautiful Music tabs
01Oriental Melody tabbass tab
02Belly Dancer tabbass tab
03Starry Night tabbass tab
04Chords of Life tabbass tab
06Sleep Walk tabbass tab
08Mountain Song tabbass tab
09What Breaks a Heart tabbass tab
11Hill Groove tabbass tab
14You Saved My Life tabbass tab

 

1