Search tabs:
Browse artists: 0-9 | A | B | C | D | E | F | G | H | I | J | K | L | M | N | O | P | Q | R | S | T | U | V | W | X | Y | Z
/ / / guitar tab

LORDS OF KARMA
As recorded by Joe Satriani
From the 1987 Album SURFING WITH THE ALIEN
Words by none
Music by Joe Satriani
Arranged by Satch

          C5                   A5                   D5                   B5
      x 3 5 5 x x          x 0 2 2 x x          x 5 7 7 x x          x 2 4 4 x x

          E5                 E5open
      x 7 9 9 x x          0 2 2 x x x

Gtr I (E A D G B E) - 'Elec. Sitar'
Gtr II (E A D G B E) - 'Elec'
Gtr III (E A D G B E) - 'Elec'
Gtr IV (E A D G B E) - 'Elec'
Gtr V (E A D G B E) - 'Elec'
Gtr VI (E A D G B E) - 'Elec'

   Intro
    Moderately uptempo Q=160
   4/4
    Gtr I sitar
    E E E  E  +H        +W           E E E E +H       +W
||--------11-(11)----|-(11)--------|-------5-(5)----|-(5)-----||
||o-------10-(10)----|-(10)--------|-------7-(7)----|-(7)----o||
||------9------------|-------------|-----7----------|---------||
||----7--------------|-------------|---5------------|---------||
||o-0----------------|-------------|-0--------------|--------o||
||-------------------|-------------|----------------|---------||


    Gtr II
    E E E  E  +H        +W
||-------------------|-------------|
||o------------------|-------------|
||-------------------|-------------|
||--7------7--(7)----|--(7)--------|
||o-0------0--(0)----|--(0)--------|
||----0-4------------|-------------|
|
|   Gtr I
|   E E E  E  +H        +W
||--------11-(11)----|-(11)--------|
||o-------10-(10)----|-(10)--------|
||------9------------|-------------|
||----7--------------|-------------|
||o-0----------------|-------------|
||-------------------|-------------|


                   1.             2.
  E E E E +H       +W             +Q.   E +Q   Q
|----------------|-------------||------------------||
|----------------|------------o||------------------||
|----------------|-------------||------------------||
|-7-----7-(7)----|-(7)---------||-(7)--------------||
|-0-----0-(0)----|-(0)--------o||-(0)--------------||
|---0-3----------|-------------||-------0-(0)--3---||
|
| E E E E +H       +W             +W
|-------5-(5)----|-(5)---------||-(5)--------------||
|-------7-(7)----|-(7)--------o||-(7)--------------||
|-----7----------|-------------||------------------||
|---5------------|-------------||------------------||
|-0--------------|------------o||------------------||
|----------------|-------------||------------------||


------------------------------------------------
    E E E  E  +E  E E E     E  E E E +E  E E E
||----------------------|----------------------|
||o---------------------|----------------------|
||----------------------|----------------------|
||----------------------|----------------------|
||o---------------------|----------------------|
||--5-0-4--5--(5)-0-4-0-|---5--0-4-5-(5)-0-4-0-|
|
|   E E E  E  +H           +W
||--------11-(11)-------|-(11)-----------------|
||o-------10-(10)-------|-(10)-----------------|
||------9---------------|----------------------|
||----7-----------------|----------------------|
||o-0-------------------|----------------------|
||----------------------|----------------------|


 ---------------------------------------|
  E E E E +E  E E E    E  E E E +E  E E E
|-------------------|----------------------||
|-------------------|---------------------o||
|-------------------|----------------------||
|-------------------|----------------------||
|-------------------|---------------------o||
|-5-0-3-5-(5)-0-3-0-|--5--0-3-5-(5)-0-3-0--||
|
| E E E E +H          +W
|-------5-(5)-------|-(5)------------------||
|-------7-(7)-------|-(7)-----------------o||
|-----7-------------|----------------------||
|---5---------------|----------------------||
|-0-----------------|---------------------o||
|-------------------|----------------------||


    $
    Gtr III
                             ~~~~     ~~~
    H          Q  E  a E     Q.    E  Q.        E
||------------------11s9-|---9----11-11--------12---|
||o----------------------|--------------------------|
||-----------------------|--------------------------|
||-----------------------|--------------------------|
||o----------------------|--------------------------|
||-----------------------|--------------------------|
|
|   Gtr II
|----------------------------------------------------
|   E E E  E  +E  E  E E     E  E  E  E  +E  E  E E
||-----------------------|--------------------------|
||o----------------------|--------------------------|
||-----------------------|--------------------------|
||-----------------------|--------------------------|
||o----------------------|--------------------------|
||--5-0-4--5--(5)-0--4-0-|---5--0--4--5--(5)-0--4-0-|
|
|   Gtr I
|   E E E  E  +H            +W
||--------11-(11)--------|-(11)---------------------|
||o-------10-(10)--------|-(10)---------------------|
||------9----------------|--------------------------|
||----7------------------|--------------------------|
||o-0--------------------|--------------------------|
||-----------------------|--------------------------|


                                        ~~
                        |-----3-----|
  H   Q E      a E      Q     Q  a  Q   H
|--------------------|------------------------|
|-------------10s8---|--8----10-10s12--10-----|
|--------------------|------------------------|
|--------------------|------------------------|
|--------------------|------------------------|
|--------------------|------------------------|
|
|-------------------------------------------|
| E E E E +E   E E E    E  E  E  E +E   E E E
|--------------------|------------------------|
|--------------------|------------------------|
|--------------------|------------------------|
|--------------------|------------------------|
|--------------------|------------------------|
|-5-0-3-5-(5)--0-3-0-|--5--0--3--5-(5)--0-3-0-|
|
| E E E E +H           +W
|-------5-(5)--------|-(5)--------------------|
|-------7-(7)--------|-(7)--------------------|
|-----7--------------|------------------------|
|---5----------------|------------------------|
|-0------------------|------------------------|
|--------------------|------------------------|


    ~~~~                           ~~~~       ~~~
   +Q   +E   E  Q      E  a  E     Q.      E  Q.      E
|------------------------15s11-|--11------12-12------14-|
|-(10)-(10)/-------------------|------------------------|
|------------------------------|------------------------|
|------------------------------|------------------------|
|------------------------------|------------------------|
|------------------------------|------------------------|
|
|--------------------------------------------------------
|   E    E   E  E  +E  E  E  E     E  E E  E +E  E E  E
|------------------------------|------------------------|
|------------------------------|------------------------|
|------------------------------|------------------------|
|------------------------------|------------------------|
|------------------------------|------------------------|
|---5----0---4--5--(5)-0--4--0-|---5--0-4--5-(5)-0-4--0-|
|
|   E    E   E  E  +H             +W
|--------------11-(11)---------|-(11)-------------------|
|--------------10-(10)---------|-(10)-------------------|
|------------9-----------------|------------------------|
|--------7---------------------|------------------------|
|---0--------------------------|------------------------|
|------------------------------|------------------------|


  1.
                                 ~~~~~~
  H E E    +Q              +Q  E E +Q.       +E
|------------------------|----------------------------||
|-----7b8==(7)r==========|=(7)-5---------------------o||
|------------------------|-------7-(7)-------(7)\-----||
|------------------------|----------------------------||
|------------------------|---------------------------o||
|------------------------|----------------------------||
|
|-------------------------------------------------|
| E E E     E  +E  E E E    E  E E  E  +E  E  E   E
|------------------------|----------------------------||
|------------------------|---------------------------o||
|------------------------|----------------------------||
|------------------------|----------------------------||
|------------------------|---------------------------o||
|-5-0-3-----5--(5)-0-3-0-|--5--0-3--5--(5)-0--3---0---||
|
| E E E     E  +H          +W
|-----------5--(5)-------|-(5)------------------------||
|-----------7--(7)-------|-(7)-----------------------o||
|-----7------------------|----------------------------||
|---5--------------------|----------------------------||
|-0----------------------|---------------------------o||
|------------------------|----------------------------||


  2.
                                                To Coda
  W                         W
                                                  ~~~~
  H        E   Q.           a  +Q     E  E  +E   +Q     +E
|-------------14b15======|=14r(14)---12----------------------||
|------------------------|--------------15-(15)-(15)---(15)\-||
|------------------------|-----------------------------------||
|------------------------|-----------------------------------||
|------------------------|-----------------------------------||
|------------------------|-----------------------------------||
|
|------------------------------------------------------|
| E E E E +E   E     E E        E  E  E  E  +E    E  E   E
|------------------------|-----------------------------------||
|------------------------|-----------------------------------||
|------------------------|-----------------------------------||
|------------------------|-----------------------------------||
|------------------------|-----------------------------------||
|-5-0-3-5-(5)--0-----3-0-|------5--0--3--5--(5)---0--3---0---||
|
| E E E E +H                   +W
|-------5-(5)------------|-----(5)---------------------------||
|-------7-(7)------------|-----(7)---------------------------||
|-----7------------------|-----------------------------------||
|---5--------------------|-----------------------------------||
|-0----------------------|-----------------------------------||
|------------------------|-----------------------------------||


 Theme
  C5       C5          C5       C5
  Gtr II
   E   e e E e e e e    E   e e E  e e   e e
   |   | | | | | | |    |   | | |  | |   | |
   /   o / / o / / /    /   o / /  o /   / /

   \3/                  \3/          \3/
   W                    H          a H
|--------------------|-------------------------|
|--------------------|-------------------------|
|-12-----------------|-11---------11s8---------|
|--------------------|-------------------------|
|--------------------|-------------------------|
|--------------------|-------------------------|
|
|  W                    W
|--------------------|-------------------------|
|--------------------|-------------------------|
|--------------------|-------------------------|
|--------------------|-------------------------|
|--------------------|-------------------------|
|--------------------|-------------------------|
|
|  W                    W
|--------------------|-------------------------|
|--------------------|-------------------------|
|--------------------|-------------------------|
|--------------------|-------------------------|
|--------------------|-------------------------|
|--------------------|-------------------------|


  A5        A5             A5        A5
  E e     e E e  e  e e    E e e      E    e  e  e  e
  | |     | | |  |  | |    | | |      |    |  |  |  |
  / o     / / o  /  / /    / o /      /    o  /  /  /

  Gtr III
    \1.5/                      \0.5___\4___/     \1
                 ~~~~
  a H           +H         E E E     +E    E +E  Q
|------------------------|----------------------------|
|------------------------|----------------------------|
|-8s5-----------(5)s=====|=2--------------h5-(5)------|
|------------------------|----------------------------|
|------------------------|---0-------------------0----|
|------------------------|-----0-----(0)---------0----|


  C5          C5                               C5       C5            A5            A5
    E     e e E   e        e        e      e    E   e e E e   e e e   E     e  e  E e e e e
    |     | | |   |        |        |      |    |   | | | |   | | |   |     |  |  | | | | |
    /     o / /   o        /        /      /    /   o / / o   / / /   /     o  /  / o / / /

    \4.5/         \0.25/   \0.25/   \0.25/      \2/       \3/         \1.5/
                                                                               ~~~
    H            +E       +E       +Q           H         H           H       +H
|--------------------------------------------|----------------------|------------------------|
|--------------------------------------------|----------------------|------------------------|
|-h12-----------(12)-----(12)-----(12)-------|-11---------8---------|-5-------(5)------------|
|--------------------------------------------|------------8---------|-5-------(5)------------|
|--------------------------------------------|----------------------|------------------------|
|--------------------------------------------|----------------------|------------------------|


                                D5             D5
                                Gtr II
  W                               E     e   e    E        e      e e e
                                  |     |   |    |        |      | | |
                                  /     o   /    /        o      / / /

    /1.5___/       |              \3.5/          \0.25/   \0.25/
  S S     +Q.     +E  E  Q        H        +E   +E       +Q
|----------------------------||----------------------------------------|
|----------------------------||-h10-------(10)-(10)-----(10)-----------|
|---------------------x/-x\--||----------------------------------------|
|---------------------x/-x\--||----------------------------------------|
|-0-0-----(0)-----(0)-x/-x\--||----------------------------------------|
|----------------------------||----------------------------------------|
|
| Gtr II
|   PM----|     PM-------|
| E E      E  E E  E  E  E        W
|----------------------------||----------------------------------------|
|----------------------------||----------------------------------------|
|----------------------------||----------------------------------------|
|----------------------------||----------------------------------------|
|-7-----------7----------3---||----------------------------------------|
|-5-5------5--5-5--3--5------||----------------------------------------|


  D5               D5        B5           B5
   E   e   e     E e e e e    E     e  e   E      e     e e e
   |   |   |     | | | | |    |     |  |   |      |     | | |
   /   o   /     / o / / /    /     o  /   /      o     / / /

   \2/     \2.5/              \2.5/        \0.5/  \0.5/
                                       |----3-----|
   H       H                  H       +Q  +Q     +Q
|--------------------------|-----------------------------------|
|-h9-----------------------|-----------------------------------|
|--------h10---------------|-h7-------(7)-(7)----(7)-----------|
|--------------------------|-----------------------------------|
|--------------------------|-----------------------------------|
|--------------------------|-----------------------------------|
|
|                W                         W
|--------------------------|-----------------------------------|
|--------------------------|-----------------------------------|
|--------------------------|-----------------------------------|
|--------------------------|-----------------------------------|
|--------------------------|-----------------------------------|
|--------------------------|-----------------------------------|


                                         D5          D5             D5       D5
                                         Gtr II
          W                                E     e e E   e  e e e    E   e e E   e   e e e
                                           |     | | |   |  | | |    |   | | |   |   | | |
                                           /     o / /   o  / / /    /   o / /   o   / / /

  Gtr III
   \0.5/  \0.5/    \2/  \2/     \2/        \3.5/                     \2/         \2/
                                                         ~~~~
  +E     +Q        E    Q       Q          H            +H           H           H
|--------------------------------------|--------------------------|------------------------|
|--------------------------------------|-/10-----------(10)-------|-h9---------h13---------|
|-(7)----(7)---------------------------|--------------------------|------------------------|
|-----------------h7---h6------h7------|--------------------------|------------------------|
|--------------------------------------|--------------------------|------------------------|
|--------------------------------------|--------------------------|------------------------|
|
| Gtr II
|                       \1.5/   \1.5/
|         PM----|
|  E      E     E  E    Q       Q                    W                       W
|--------------------------------------|--------------------------|------------------------|
|--------------------------------------|--------------------------|------------------------|
|--------------------------------------|--------------------------|------------------------|
|--4-----------------------------------|--------------------------|------------------------|
|--2------2-----2----------------------|--------------------------|------------------------|
|------------------5----4s======5------|--------------------------|------------------------|


  B5       B5
   E   e e E  e   e      e      e            W
   |   | | |  |   |      |      |
   /   o / /  o   /      /      /

   \2/            \0.5/  \0.5/  \0.5/   \1/  \1/    \2/  \2/     \2/
   H         +E  +E     +E     +E       E   +Q      E    Q       Q
|-------------------------------------|-----------------------------------|
|-------------------------------------|-----------------------------------|
|-h7---------(7)-(7)----(7)----(7)----|-7---(7)---------------------------|
|-------------------------------------|------------h7---h6------h7--------|
|-------------------------------------|-----------------------------------|
|-------------------------------------|-----------------------------------|
|
|                                       Gtr II
|                                                        \1.5/   \1.5/
|                                            PM--|
|        W                              E    E   E  E    Q       Q
|-------------------------------------|-----------------------------------|
|-------------------------------------|-----------------------------------|
|-------------------------------------|-----------------------------------|
|-------------------------------------|-4---------------------------------|
|-------------------------------------|-2----2---2------------------------|
|-------------------------------------|-------------5----4s======5--------|


  E5                                             C5                              E5
  Gtr II
    E     e e   E       e       e       q         E     e e E      e  e q         E     e e E e   e q
    |     | |   |       |       |       |         |     | | |      |  | |         |     | | | |   | |
    /     / /   /       /       /       /         /     / / /      /  / /         /     / / / /   / /

    \1.5/       \0.5/   \0.5/   \0.5/   \0.5/     \1.5/     \1.5/       \3.5/     \1.5/       \1/
                                                                                              ~~~
    Q.         +E      +E      +E      +Q         Q.        E     +Q    Q         H           H
|----------------------------------------------|-------------------------------|-----------------------|
|-h12---------(12)----(12)----(12)----(12)-----|-11s========7-----(7)s==8------|-12s==========5--------|
|----------------------------------------------|-------------------------------|-----------------------|
|----------------------------------------------|-------------------------------|-----------------------|
|----------------------------------------------|-------------------------------|-----------------------|
|----------------------------------------------|-------------------------------|-----------------------|


  C5                                   E5                                       C5
    E     e e   E       e  e  q          E     e e E   e       e       q          E     e e   E       e  e  q
    |     | |   |       |  |  |          |     | | |   |       |       |          |     | |   |       |  |  |
    /     / /   /       /  /  /          /     / / /   /       /       /          /     / /   /       /  /  /

    \0.5/       \1.5/         \2.5/      \1.5/         \0.5/   \0.5/   \0.5/      \1.5/       \1.5/         \2.5/
    Q.          E      +Q     Q          H            +E      +E      +Q          Q.          E      +Q     Q
|------------------------------------|----------------------------------------|-------------------------------------|
|-h11--------------------------------|-h12-----------(12)----(12)----(12)-----|-h11---------------------------------|
|-------------h11-----(11)s==12------|----------------------------------------|-------------h11-----(11)s==12-------|
|------------------------------------|----------------------------------------|-------------------------------------|
|------------------------------------|----------------------------------------|-------------------------------------|
|------------------------------------|----------------------------------------|-------------------------------------|


 3/4
  Gtr III
   \2.5/    \2.5/          \2.5/    \2.5/
   Q.      +E      +Q     +Q.      +E      +Q
|-----------------------|-----------------------|
|-----------------------|-----------------------|
|--9-------(9)-----(9)--|-(9)------(9)-----(9)--|
|-----------------------|-----------------------|
|-----------------------|-----------------------|
|-----------------------|-----------------------|
|
| Gtr IV
|  \1.5/    \1.5/          \1.5/    \1.5/
|  Q.       E      +Q      Q.       E      +Q
|--0--------0------(0)--|--0--------0------(0)--|
|--0--------0------(0)--|--0--------0------(0)--|
|--4--------4------(4)--|--5--------5------(5)--|
|-----------------------|-----------------------|
|-----------------------|-----------------------|
|-----------------------|-----------------------|
|
| Gtr V
|  \1.5/    \1.5/          \1.5/    \1.5/
|  Q.       E      +Q      Q.       E      +Q
|-12-------12-----(12)--|-12-------12-----(12)--|
|-12-------12-----(12)--|-13-------13-----(13)--|
|-----------------------|-----------------------|
|-----------------------|-----------------------|
|-----------------------|-----------------------|
|-----------------------|-----------------------|


   \2.5/    \2.5/          \2.5/    \2.5/
  +Q.      +E      +Q     +Q.      +E      +Q
|-----------------------|-----------------------||
|-----------------------|-----------------------||
|-(9)------(9)-----(9)--|-(9)------(9)-----(9)--||
|-----------------------|-----------------------||
|-----------------------|-----------------------||
|-----------------------|-----------------------||
|
|  \1.5/    \1.5/          \1.5/    \1.5/
|  Q.       E      +Q      Q.       E      +Q
|--0--------0------(0)--|--0--------0------(0)--||
|--0--------0------(0)--|--0--------0------(0)--||
|--6--------6------(6)--|--7--------7------(7)--||
|-----------------------|-----------------------||
|-----------------------|-----------------------||
|-----------------------|-----------------------||
|
|  \1.5/    \1.5/          \1.5/    \1.5/
|  Q.       E      +Q      Q.       E      +Q
|-12-------12-----(12)--|-12-------12-----(12)--||
|-14-------14-----(14)--|-15-------15-----(15)--||
|-----------------------|-----------------------||
|-----------------------|-----------------------||
|-----------------------|-----------------------||
|-----------------------|-----------------------||


 Interlude
 4/4
  Gtr III
  \7______________________________/                              /1________
                                  T        T                     T
  W                     +H     Q  Q       +W                    +W
|--------------------|------------------|---------------------|-----------|
|--------------------|------------------|---------------------|-----------|
|-0------------------|--(0)----0--0(4)--|-(0(4))--------------|-(0(4))----|
|--------------------|------------------|---------------------|-----------|
|--------------------|------------------|---------------------|-----------|
|--------------------|------------------|---------------------|-----------|
|
| Gtr I
| E   E E  E  +H        +W                 E     E E E +H       +W
|---------11-(11)----|-(11)-------------|------------5-(5)----|-(5)-------|
|---------10-(10)----|-(10)-------------|------------7-(7)----|-(7)-------|
|-------9------------|------------------|----------7----------|-----------|
|-----7--------------|------------------|--------5------------|-----------|
|-0------------------|------------------|--0------------------|-----------|
|--------------------|------------------|---------------------|-----------|
|
| Gtr II
| E   E E  E  +H        +W                 E     E E E +H       +W
|--------------------|------------------|---------------------|-----------|
|--------------------|------------------|---------------------|-----------|
|--------------------|------------------|---------------------|-----------|
|-7--------7--(7)----|--(7)-------------|--7---------7-(7)----|-(7)-------|
|-0--------0--(0)----|--(0)-------------|--0---------0-(0)----|-(0)-------|
|-----0-4------------|------------------|--------0-3----------|-----------|


   /                                            \2
   T              T            T         T      T
  +H             +H           +H        +E     +Q.
|--------------------------|----------------------------|
|--------------------------|----------------------------|
|-(0(4))---------(0(4))----|--(0(4))----(0(4))-(0(4))---|
|--------------------------|----------------------------|
|--------------------------|----------------------------|
|--------------------------|----------------------------|
|
|  E     E E  E  +H           +W
|------------11-(11)-------|-(11)-----------------------|
|------------10-(10)-------|-(10)-----------------------|
|----------9---------------|----------------------------|
|--------7-----------------|----------------------------|
|--0-----------------------|----------------------------|
|--------------------------|----------------------------|
|
|  E     E E  E  +H           +W
|--------------------------|----------------------------|
|--------------------------|----------------------------|
|--------------------------|----------------------------|
|--7----------7--(7)-------|--(7)-----------------------|
|--0----------0--(0)-------|--(0)-----------------------|
|--------0-4---------------|----------------------------|


                |
   T
  +H            E  E Q     Q   Q     Q   Q
|-----------------------|---------------------||
|-----------------------|------x\-------------||
|-(0(4))--------x/------|------x\----x\-------||
|-----------------------|------------x\--x\---||
|-----------------------|----------------x\---||
|-----------------------|---------------------||
|
|  E     E E E +H         +W
|------------5-(5)------|-(5)-----------------||
|------------7-(7)------|-(7)-----------------||
|----------7------------|---------------------||
|--------5--------------|---------------------||
|--0--------------------|---------------------||
|-----------------------|---------------------||
|
|  E     E E E +H         +Q.     E +Q   Q
|-----------------------|---------------------||
|-----------------------|---------------------||
|-----------------------|---------------------||
|--7---------7-(7)------|-(7)-----------------||
|--0---------0-(0)------|-(0)-----------------||
|--------0-3------------|---------0-(0)--3----||


 Guitar Solo
  Gtr III
      |-3-|        |----5-----| |----5----|   |----------11:8-----------|  |----6-----|
   E  S S S E S S  S  S S   S S S S S   S S   S S S   S S S   S S S   S S  S  S S S S S +S  S a E
|-(0)---------------------------------------|-----------------------------------------------------|
|-------------------------------------------|-----------------------------------------------------|
|-----------9-6----6h=8h9p==8p6---6h8h==9p8p|=6---6h==8h9p8p==6---6h==8h9p=8p=6---6h8h9-(9)p8p6s4-|
|-----6h7h9-----9---------------9-----------|---9---------------9---------------9-----------------|
|-------------------------------------------|-----------------------------------------------------|
|-------------------------------------------|-----------------------------------------------------|
|
| Gtr II
|--------------------------------------------------------------------------------------------------
|  E  E     E E   +E      E     E     E       E     E       E       E     +E      E      E      E
|-------------------------------------------|-----------------------------------------------------|
|-------------------------------------------|-----------------------------------------------------|
|-------------------------------------------|-----------------------------------------------------|
|-------------------------------------------|-----------------------------------------------------|
|-------------------------------------------|-----------------------------------------------------|
|--5--0-----4-5---(5)-----0-----4-----0-----|-5-----0-------4-------5-----(5)-----0------4------0-|


  |-3-| |3| |----6----|  |----6-----| |----6----|
  S S S S E S S S S S S  S  S S S S S S S S S S S
|---------------------------------------------------|
|---------------------------------------------------|
|-6h7p6p4-------------------------4-----------------|
|---------7-4h5h7-4h5h7p=5p=4h5h7---7p5p4-----------|
|-----------------------------------------7p5p4h5h==|
|---------------------------------------------------|
|
|-------------------------------------------|
| E     E   E     E     +E      E     E     E
|---------------------------------------------------|
|---------------------------------------------------|
|---------------------------------------------------|
|---------------------------------------------------|
|---------------------------------------------------|
|-5-----0---3-----5-----(5)-----0-----3-----0-------|


  |----6----| |----6----|  |----6-----| |----6----|
  S S S S S S S S S S S S  S  S S S S S S S S S S S
|---------------------------------------------------|
|---------------------------------------------------|
|---------------------------------------------------|
|---4h5h7p5p4---------4p2p=0----------2-------------|
|-7-----------7p5p4p0---------4p2h4h5---2h4h5p2-----|
|-----------------------------------------------3h4s|
|
|----------------------------------------------------
| E     E     E     E     +E      E     E     E
|---------------------------------------------------|
|---------------------------------------------------|
|---------------------------------------------------|
|---------------------------------------------------|
|---------------------------------------------------|
|-5-----0-----3-----5-----(5)-----0-----3-----0-----|


                                     |3| |-3-|     |-3-|     |-3-|       |-3-|
  E S S S S S S  S  S S S S S S  S   E S S S S S S S S S  E  S S S S  S  S S S
|----------------------------------|-----------------------------------------------|
|----------------------------------|-----------------------------------------------|
|----------------------------------|-----------------------------------------------|
|----------------6h=9p6h7h8--------|-----6h7h9p6s4-----------------4-----7p6p5p====|
|---4-7-5s6h7h9-------------6------|-6h9-----------7p4h6h=7--4h6h7---(7)-----------|
|-5---------------------------9s10-|-----------------------------------------------|
|
|------------------------------------------------------------------------|
| E E   E   E   +E    E   E   E      E   E     E   E     +E  E     E     E
|----------------------------------|-----------------------------------------------|
|----------------------------------|-----------------------------------------------|
|----------------------------------|-----------------------------------------------|
|----------------------------------|-----------------------------------------------|
|----------------------------------|-----------------------------------------------|
|-5-0---4---5---(5)---0---4---0----|-5---0-----4---5-----(5)-0-----4-----0---------|


                         |3-| |3| |-3-|
  S S S S S T T T T T T  E  S E S S S S T T T T
|-----------------------------------------------|
|-----------------------------------------------|
|---------------------------------4h6h7-4h5h6s7-|
|-4-7p5p4---------4---------4h5h7---------------|
|---------7-4h6h7---4h5h=7----------------------|
|-----------------------------------------------|
|
|------------------------------------------------
| E   E   E     E       +E    E   E     E
|-----------------------------------------------|
|-----------------------------------------------|
|-----------------------------------------------|
|-----------------------------------------------|
|-----------------------------------------------|
|-5---0---3-----5-------(5)---0---3-----0-------|


  E T T  T T S S  S S  T   T  T  T E  S  S S  S
|-------------------7--9h=10h12p10p9\------9h11---|
|-5-7h8h10p8-7h8h10-------------------8s12--------|
|-------------------------------------------------|
|-------------------------------------------------|
|-------------------------------------------------|
|-------------------------------------------------|
|
|------------------------------------------|
| E E        E    E   +E           E  E    E
|-------------------------------------------------|
|-------------------------------------------------|
|-------------------------------------------------|
|-------------------------------------------------|
|-------------------------------------------------|
|-5-0--------3----5---(5)----------0--3----0------|


   T       T       T       T            T          T
   |-3--|  |3|  |--3--| |--3--|  |------6-------|  |------6------|
   S  S S  E S  S  S  S E  T  T  S   S  S  S S  S  S  S  S S  S  S
|-12p11p9-12p9h11-12p11p9-12p11p=9--11-12p11p9h11-14p12p11s9h11h12-|
|------------------------------------------------------------------|
|------------------------------------------------------------------|
|------------------------------------------------------------------|
|------------------------------------------------------------------|
|------------------------------------------------------------------|
|
|-------------------------------------------------------------------
|  E       E    E       E       +E         E       E       E
|------------------------------------------------------------------|
|------------------------------------------------------------------|
|------------------------------------------------------------------|
|------------------------------------------------------------------|
|------------------------------------------------------------------|
|--5-------0----4-------5-------(5)--------0-------4-------0-------|


   T                T                T              T
   |------6------|  |------6------|  |------6-------|
   S  S  S S  S  S  S  S  S S  S  S  S   S  S S  S  S  S  S S  S
|-16p12p11p9h11h12-19p12p11p9h11h12-16p=12p11p9h11-14p12p11p9h12p=|
|-----------------------------------------------------------------|
|-----------------------------------------------------------------|
|-----------------------------------------------------------------|
|-----------------------------------------------------------------|
|-----------------------------------------------------------------|
|
|-----------------------------------------------------------|
|  E       E        E       E       +E        E        E    E
|-----------------------------------------------------------------|
|-----------------------------------------------------------------|
|-----------------------------------------------------------------|
|-----------------------------------------------------------------|
|-----------------------------------------------------------------|
|--5-------0--------4-------5-------(5)-------0--------4----0-----|


        T           T      T        T     T       T
           |-3-| |3-| |-3--|  |-----6-----| |----6----|
  a  S  S  S S S S  E S S  S  S  S  S S S S S S S S S S
|-9h10-12p10p9s7h9-10p9p7-------------------------------|
|-------------------------10p=7h=8-10p8p7---------------|
|-----------------------------------------9p7p6h7-9p7p6s|
|-------------------------------------------------------|
|-------------------------------------------------------|
|-------------------------------------------------------|
|
|--------------------------------------------------------
|    E     E     E    E      +E       E     E     E
|-------------------------------------------------------|
|-------------------------------------------------------|
|-------------------------------------------------------|
|-------------------------------------------------------|
|-------------------------------------------------------|
|----5-----0-----3----5------(5)------0-----3-----0-----|


      T
  |-3-| |3| |----6----|  |----5-----| |-3-|
  S S S S E S S S S S S  S  S S   S S S S S  E
|------------------------------------------------|
|-------------------------------------------(0)--|
|-4h6-7p6p4--------------------------------------|
|-----------7p0h5h7-4h5h=7p=5p4------------------|
|---------------------------------7p5-5p4p2------|
|------------------------------------------------|
|
|-------------------------------------------|
| E     E   E     E     +E      E     E      E
|------------------------------------------------|
|------------------------------------------------|
|------------------------------------------------|
|------------------------------------------------|
|------------------------------------------------|
|-5-----0---3-----5-----(5)-----0-----3------0---|


            |-3-|  |---------3----------|
  S S E S S S S S  S  S S S S S S S S S E
|-----9-----4p2p0--4h=5p4p0---------------|
|-------4p0-----------------4h5p4p0-4h7p0-|
|-----------------------------------------|
|-2p0-------------------------------------|
|-2p0-------------------------------------|
|-----------------------------------------|
|
|------------------------------------------
| E   E E   E     +E      E     E     E
|-----------------------------------------|
|-----------------------------------------|
|-----------------------------------------|
|-----------------------------------------|
|-----------------------------------------|
|-5---0-4---5-----(5)-----0-----4-----0---|


  |----------3----------|  |----------3----------|
  S S S S S S S S S S S S  E  S S E  S S  E    S S
|-5h7p5p0-7h9p7p0-2h4p2p0--4h=5-0-9h11-0-11h==12-0--|
|---------------------------------------------------|
|---------------------------------------------------|
|---------------------------------------------------|
|---------------------------------------------------|
|---------------------------------------------------|
|
|-------------------------------------------|
| E     E     E     E     +E    E    E      E
|---------------------------------------------------|
|---------------------------------------------------|
|---------------------------------------------------|
|---------------------------------------------------|
|---------------------------------------------------|
|-5-----0-----4-----5-----(5)---0----4------0-------|


   |-----------3-----------|  |------------3-------------|
   E  S S  E  S S  S  S  S S  E  E    S  S  S S  S  S  S S
|-12h14-0-14h15-0-15h17p15p0-14p=0---15h17p15p0-14h15p14p0-|
|----------------------------------------------------------|
|----------------------------------------------------------|
|----------------------------------------------------------|
|----------------------------------------------------------|
|----------------------------------------------------------|
|
|-----------------------------------------------------------
|  E    E     E       E      +E    E        E       E
|----------------------------------------------------------|
|----------------------------------------------------------|
|----------------------------------------------------------|
|----------------------------------------------------------|
|----------------------------------------------------------|
|--5----0-----3-------5------(5)---0--------3-------0------|


   |-------------3-------------|
   S  S  S S  S  S  S S S  S S S  T  T T T E  Q
|-12h14p12p0-10h12p10p0-9h10p9p0--7h=9p7p0-x/---------|
|------------------------------------------x/---------|
|-----------------------------------------------------|
|---------------------------------------------x\------|
|---------------------------------------------x\------|
|-----------------------------------------------------|
|
|------------------------------------------------|
|  E       E        E      E     +E        E  E  E
|-----------------------------------------------------|
|-----------------------------------------------------|
|-----------------------------------------------------|
|-----------------------------------------------------|
|-----------------------------------------------------|
|--5-------0--------3------5-----(5)-------0--3--0----|


  Gtr III
        /2___\2_____________/2___\2____________/2___\2________/2___\2______/2___\2_______
    |-------3-------|                          |------3-------|
    Q   a   +Q     +Q       E   +E   +Q        E   +E   +Q    Q   +E   +E  S   +S   +E
|------------------------------------------|--------------------------------------------|
|------------------------------------------|--------------------------------------------|
|-/12--------------------------------------|--------------------------------------------|
|------------------------------------------|--------------------------------------------|
|-/10---7---(7)----(7)------7---(7)--(7)---|---7---(7)--(7)---7---(7)--(7)-7---(7)--(7)-|
|------------------------------------------|--------------------------------------------|
|
| Gtr II
|----------------------------------------------------------------------------------------
|   E E          E      E  +E    E    E  E     E    E       E      E   +E  E    E    E
|------------------------------------------|--------------------------------------------|
|------------------------------------------|--------------------------------------------|
|------------------------------------------|--------------------------------------------|
|------------------------------------------|--------------------------------------------|
|------------------------------------------|--------------------------------------------|
|---5-0----------4------5--(5)---0----4--0-|---5----0-------4------5---(5)-0----4----0--|
|
| Gtr I
|   E E          E      E  +H                 +W
|----------------------11-(11)-------------|-(11)---------------------------------------|
|----------------------10-(10)-------------|-(10)---------------------------------------|
|----------------9-------------------------|--------------------------------------------|
|-----7------------------------------------|--------------------------------------------|
|---0--------------------------------------|--------------------------------------------|
|------------------------------------------|--------------------------------------------|


        /1.5___\1.5_________/1.5___\1.5___|           \3                 |
   |--------3---------|     |--------3---------|
  +Q    E     +E     +Q     E     +E     +Q    Q      H..                E
|--------------------------------------------------|--------------------------|
|--------------------------------------------------|--------------------------|
|--------------------------------------------------|--0-----------------------|
|--------------------------------------------------|--0-----------------------|
|-(7)---7-----(7)----(7)----7-----(7)----(7)---7p==|==0-----------------------|
|----------------------------------------------7p==|==0-----------------11\---|
|
|-----------------------------------------------------------------------|
|  E  E        E         E +E      E         E   E    E   E E E +E  E E  E
|--------------------------------------------------|--------------------------|
|--------------------------------------------------|--------------------------|
|--------------------------------------------------|--------------------------|
|--------------------------------------------------|--------------------------|
|--------------------------------------------------|--------------------------|
|--5--0--------3---------5-(5)-----0---------3---0-|--5---0-3-5-(5)-0-3--0----|
|
|  E  E        E         E +H                        +W
|------------------------5-(5)---------------------|-(5)----------------------|
|------------------------7-(7)---------------------|-(7)----------------------|
|--------------7-----------------------------------|--------------------------|
|-----5--------------------------------------------|--------------------------|
|--0-----------------------------------------------|--------------------------|
|--------------------------------------------------|--------------------------|


    /2___\2________/2___\2______________/2___\2_________/2____\2_______/2___\2_______
  E E   +E   +E    S   +S   +Q.         S   +S   +Q     S    +S   Q    S   +S   +E
|-----------------------------------|-----------------------------------------------|
|-----------------------------------|-----------------------------------------------|
|-0-9---(9)--(9)---9---(9)--(9)-----|---9---(9)--(9)h==12---(12)p=9----9---(9)--(9)-|
|-----------------------------------|-----------------------------------------------|
|-----------------------------------|-----------------------------------------------|
|-----------------------------------|-----------------------------------------------|
|
|------------------------------------------------------------------------------------
| E E    E    E   +E         E  E E     E         E  E  E        +E  E E         E
|-----------------------------------|-----------------------------------------------|
|-----------------------------------|-----------------------------------------------|
|-----------------------------------|-----------------------------------------------|
|-----------------------------------|-----------------------------------------------|
|-----------------------------------|-----------------------------------------------|
|-5-0----4----5---(5)--------0--4-0-|---5---------0--4--5--------(5)-0-4---------0--|
|
| E E    E    E   +H                   +W
|------------11--(11)---------------|-(11)------------------------------------------|
|------------10--(10)---------------|-(10)------------------------------------------|
|--------9--------------------------|-----------------------------------------------|
|---7-------------------------------|-----------------------------------------------|
|-0---------------------------------|-----------------------------------------------|
|-----------------------------------|-----------------------------------------------|


         /2____\2______/1.5___\1.5_____|                 /1____\3_______________|
   |------3-------|                                |--3--|
  +Q     E    +E  Q    S.    +S.      +S  E a E   +Q     E    +Q      +E   Q    E
|-----------------------------------------------|----------------------------------|
|-----------------------------------------------|-------<5>--(<5>)---(<5>)---------|
|-(9)---15---(15)p9----9-----(9)------(9)p7---6-|-(6)------------------------------|
|-------------------------------------------x---|----------------------------------|
|-----------------------------------------------|--------------------------4/---x--|
|-----------------------------------------------|-------------------------------x--|
|
|-------------------------------------------------------------------------------|
|  E  E        E    E +E            E     E   E    E  E        E   E  +E   E  E E
|-----------------------------------------------|----------------------------------|
|-----------------------------------------------|----------------------------------|
|-----------------------------------------------|----------------------------------|
|-----------------------------------------------|----------------------------------|
|-----------------------------------------------|----------------------------------|
|--5--0--------3----5-(5)-----------0-----3---0-|--5--0--------3---5--(5)--0--3-0--|
|
|  E  E        E    E +H                          +W
|-------------------5-(5)-----------------------|-(5)------------------------------|
|-------------------7-(7)-----------------------|-(7)------------------------------|
|--------------7--------------------------------|----------------------------------|
|-----5-----------------------------------------|----------------------------------|
|--0--------------------------------------------|----------------------------------|
|-----------------------------------------------|----------------------------------|


  Q    H.                     Q.        E  +E       +S   +S   +E   E
|-----21b24---------------|--21b24-----21-(21)b23==(21)r(21)-(21)\-x-|
|-------------------------|----------------------------------------0-|
|-------------------------|------------------------------------------|
|-------------------------|------------------------------------------|
|-------------------------|------------------------------------------|
|-------------------------|------------------------------------------|
|
|---------------------------------------------------------------------
| E E  E     E  +E  E E E     E    E E  E  +E        E         E   E
|-------------------------|------------------------------------------|
|-------------------------|------------------------------------------|
|-------------------------|------------------------------------------|
|-------------------------|------------------------------------------|
|-------------------------|------------------------------------------|
|-5-0--4-----5--(5)-0-4-0-|---5----0-4--5--(5)-------0---------4---0-|
|
| E E  E     E  +H           +W
|-----------11-(11)-------|-(11)-------------------------------------|
|-----------10-(10)-------|-(10)-------------------------------------|
|------9------------------|------------------------------------------|
|---7---------------------|------------------------------------------|
|-0-----------------------|------------------------------------------|
|-------------------------|------------------------------------------|


                  ~~~~~                              ~~~~~~~
  E  E  Q        +H            E      +S   +S   +E   E  +E   +E   E E
|------21b22====(21)r-------|-21b22==(21)r(21)-(21)-19-(19)-(19)\---0--|
|---------------------------|---------------------------------------0--|
|-x/------------------------|-------------------------------------0----|
|-x/------------------------|------------------------------------------|
|---------------------------|------------------------------------------|
|---------------------------|------------------------------------------|
|
|-------------------------------------------------------------------|
| E  E  E     E  +E   E E E    E       E         E   E  +E    E   E E
|---------------------------|------------------------------------------|
|---------------------------|------------------------------------------|
|---------------------------|------------------------------------------|
|---------------------------|------------------------------------------|
|---------------------------|------------------------------------------|
|-5--0--3-----5--(5)--0-3-0-|--5-------0---------3---5--(5)---0---3-0--|
|
| E  E  E     E  +H           +W
|-------------5--(5)--------|-(5)--------------------------------------|
|-------------7--(7)--------|-(7)--------------------------------------|
|-------7-------------------|------------------------------------------|
|----5----------------------|------------------------------------------|
|-0-------------------------|------------------------------------------|
|---------------------------|------------------------------------------|


   |3-|  |--3--|              |------------3-------------|
   E  S  S  S  S  +E   S  S   S   S  S S  S  S  S S  E   E
|-16h17p16p12------------16--14h=16p14p0-12h14p12p0--------|
|-------------16-(16)-14----------------------------12p==0-|
|----------------------------------------------------------|
|----------------------------------------------------------|
|----------------------------------------------------------|
|----------------------------------------------------------|
|
|-----------------------------------------------------------
|  E     E         E   E     +E        E        E      E
|----------------------------------------------------------|
|----------------------------------------------------------|
|----------------------------------------------------------|
|----------------------------------------------------------|
|----------------------------------------------------------|
|--5-----0---------4---5-----(5)-------0--------4------0---|
|
|  E     E         E   E     +H
|---------------------11----(11)---------------------------|
|---------------------10----(10)---------------------------|
|------------------9---------------------------------------|
|--------7-------------------------------------------------|
|--0-------------------------------------------------------|
|----------------------------------------------------------|


    |-------------3--------------|  |-----------3-----------|
    S   S  S S  S  S  S S S  S S S  S   S S S S S S S S S S S
|--------------11h12p11p0-9h11p9p0------------7h9p7p0-----------|
|--10h=12p10p0----------------------9h=10p9p0---------7h9p7p0---|
|---------------------------------------------------------------|
|---------------------------------------------------------------|
|---------------------------------------------------------------|
|---------------------------------------------------------------|
|
|-------------------------------------------------------|
|   E        E        E      E     +E       E     E     E
|---------------------------------------------------------------|
|---------------------------------------------------------------|
|---------------------------------------------------------------|
|---------------------------------------------------------------|
|---------------------------------------------------------------|
|---5--------0--------4------5-----(5)------0-----4-----0-------|
|
|  +W
|-(11)----------------------------------------------------------|
|-(10)----------------------------------------------------------|
|---------------------------------------------------------------|
|---------------------------------------------------------------|
|---------------------------------------------------------------|
|---------------------------------------------------------------|


                                                              ~~~~~~
  |----------3----------|  |----------3-----------|
  S S S S S S S S S S S S  S  S S S S S S S S S S S    E  E E E +Q     Q
|-5h7p5p0------------------3h=5p3p0-2h3p2p0---------|------------------------||
|---------5h7p5p0-3h5p3p0-------------------2h3p2p0-|--0---------------------||
|---------------------------------------------------|------------------------||
|---------------------------------------------------|------------------------||
|---------------------------------------------------|------------------------||
|---------------------------------------------------|---------3-(3)---[5]----||
|
|-------------------------------------------------------------------------|
| E     E     E     E     +E      E     E     E        E  E E E  E  E  E  E
|---------------------------------------------------|------------------------||
|---------------------------------------------------|------------------------||
|---------------------------------------------------|------------------------||
|---------------------------------------------------|------------------------||
|---------------------------------------------------|------------------------||
|-5-----0-----3-----5-----(5)-----0-----3-----0-----|--5--0-3-0--5--0--3--0--||
|
| E     E     E     E     +H                          +W
|-------------------5-----(5)-----------------------|-(5)--------------------||
|-------------------7-----(7)-----------------------|-(7)--------------------||
|-------------7-------------------------------------|------------------------||
|-------5-------------------------------------------|------------------------||
|-0-------------------------------------------------|------------------------||
|---------------------------------------------------|------------------------||


 Sitar Break
  Gtr I
                                 ~~~
  Q   E   E  +E   Q.      H      H       Q   E   E  +E   Q    E
|----------------------|--0------------|-------------------------|
|-----------------1----|---------1-----|-----------------3-------|
|---------4--(4)-------|---------------|---------5--(5)-------5--|
|-----3----------------|---------------|-------------------------|
|----------------------|---------------|-----6-------------------|
|-3--(3)-(3)-(3)-(3)---|-(3)----(3)----|-4--(4)-(4)-(4)-(4)--(4)-|


  +W           Q   E   E  +E   Q.      Q.    E  +E   Q.
|------------|----------------------|--8------------------|
|------------|-----------------6----|--------6--(6)-------|
|-(5)--------|---------9--(9)-------|----------------9----|
|------------|-----7----------------|---------------------|
|------------|-0--(0)-(0)-(0)-(0)---|-(0)---(0)-(0)-(0)---|
|-(4)--------|----------------------|---------------------|


  Q   E   E  +E   Q    E    +W           Q   E   E  +E   Q.
|-----------------0-------|------------|----------------------|
|---------3--(3)-------3--|-(3)--------|-----------------1----|
|-----2-------------------|------------|---------4--(4)-------|
|-------------------------|------------|-----3----------------|
|-------------------------|------------|----------------------|
|-1--(1)-(1)-(1)-(1)--(1)-|-(1)--------|-3--(3)-(3)-(3)-(3)---|


           ~
   H     a H      Q   E   E  +E   Q    E    +W
|--0-----0s3----|---------5--(5)----------|--------|
|---------------|-----------------5-------|--------|
|---------------|----------------------7--|-(7)----|
|---------------|-----5-------------------|--------|
|---------------|-------------------------|--------|
|-(3)-----------|-6--(6)-(6)-(6)-(6)--(6)-|-(6)----|


  Q   E   E  +E   Q.     Q.    E  +E   Q.
|----------------------|-8------------------|
|-----------------6----|-------6--(6)--5----|
|---------9--(9)-------|--------------------|
|-----7----------------|--------------------|
|-0--(0)-(0)-(0)-(0)---|--------------------|
|----------------------|-3----(3)-(3)-(3)---|


  Q   E   E  +E   Q.     W          +W
|-----------------0----|----------|--------||
|---------3--(3)-------|-3--------|-(3)----||
|-----2----------------|-1--------|-(1)----||
|----------------------|----------|--------||
|----------------------|----------|--------||
|-1--(1)-(1)-(1)-(1)---|-0--------|-(0)----||


 Interlude
  Gtr II
  E E E  E  +H        +W           +W                 +W
|------------------|-------------|------------------|--------|
|------------------|-------------|------------------|--------|
|------------------|-------------|------------------|--------|
|------------------|-------------|------------------|--------|
|-0------0--(0)----|--(0)--------|-(0)--------------|-(0)----|
|---0-4------------|-------------|------------------|--------|
|
| Gtr I
| E E E  E  +H        +W            E  E E E +H       +W
|-------11-(11)----|-(11)--------|---------5-(5)----|-(5)----|
|-------10-(10)----|-(10)--------|---------7-(7)----|-(7)----|
|-----9------------|-------------|-------7----------|--------|
|---7--------------|-------------|-----5------------|--------|
|-0----------------|-------------|--0---------------|--------|
|------------------|-------------|------------------|--------|


                                                          D.S. al Coda
  E E E  E  +H        +W           +W                 +Q.  E +Q   Q
|------------------|-------------|------------------|------------------||
|------------------|-------------|------------------|------------------||
|------------------|-------------|------------------|------------------||
|------------------|-------------|------------------|------------------||
|-0------0--(0)----|--(0)--------|-(0)--------------|-(0)--------------||
|---0-4------------|-------------|------------------|------0-(0)--3----||
|
| E E E  E  +H        +W            E  E E E +H       +W
|-------11-(11)----|-(11)--------|---------5-(5)----|-(5)--------------||
|-------10-(10)----|-(10)--------|---------7-(7)----|-(7)--------------||
|-----9------------|-------------|-------7----------|------------------||
|---7--------------|-------------|-----5------------|------------------||
|-0----------------|-------------|--0---------------|------------------||
|------------------|-------------|------------------|------------------||


   Outro
    &
    A5
    Gtr II
      e e  e  e   e   e  e e     e   e  e  e  e  e  e  e
      | |  |  |   |   |  | |     |   |  |  |  |  |  |  |
      / /  /  /   /   /  / /     /   /  /  /  /  /  /  /

    Gtr III
      Q    E  E  +E   E  Q       E   E  E  E  E  E  E  E
||--/19---19-17-(17)-17S12---|--12--12-12-12-12-12-12s14-|
||o--------------------------|---------------------------|
||--/16---16-14-(14)-14S=9---|---9---9--9--9--9--9--9s11-|
||---------------------------|---------------------------|
||o--------------------------|---------------------------|
||---------------------------|---------------------------|
|
|   Gtr VI
|     W                         +W
||---------------------------|---------------------------|
||o-!10----------------------|-(10)----------------------|
||--!-9----------------------|--(9)----------------------|
||--!-7----------------------|--(7)----------------------|
||o--------------------------|---------------------------|
||---------------------------|---------------------------|


     E5open
       e e  e  e  +E   e  e e     e   e  e e  e  e  e  e
       | |  |  |   |   |  | |     |   |  | |  |  |  |  |
       / /  /  /   /   /  / /     /   /  / /  /  /  /  /

   a   Q    E  E  +E   E  Q       E   E  Q    E  E  E  E
|-14s=15---15S14-(14)-14S10---|--10--10-10---10-10-10-10--|
|-----------------------------|---------------------------|
|-11s=12---12S11-(11)-11S=7---|---7---7--7----7--7--7--7--|
|-----------------------------|---------------------------|
|-----------------------------|---------------------------|
|-----------------------------|---------------------------|
|
|      W                         +W
|-----------------------------|---------------------------|
|----!10----------------------|-(10)----------------------|
|----!-7----------------------|--(7)----------------------|
|----!-5----------------------|--(5)----------------------|
|-----------------------------|---------------------------|
|-----------------------------|---------------------------|


  A5
    e e  e  e   e   e  e e     e   e  e  e  e  e  e  e
    | |  |  |   |   |  | |     |   |  |  |  |  |  |  |
    / /  /  /   /   /  / /     /   /  /  /  /  /  /  /

    Q    E  E  +E   E  Q       E   E  E  E  E  E  E  E
|-/19---19-17-(17)-17S12---|--12--12-12-12-12-12-12s14-|
|--------------------------|---------------------------|
|-/16---16-14-(14)-14S=9---|---9---9--9--9--9--9--9s11-|
|--------------------------|---------------------------|
|--------------------------|---------------------------|
|--------------------------|---------------------------|
|
|   W                         +W
|--------------------------|---------------------------|
|-!10----------------------|-(10)----------------------|
|-!-9----------------------|--(9)----------------------|
|-!-7----------------------|--(7)----------------------|
|--------------------------|---------------------------|
|--------------------------|---------------------------|


                                1.
     E5open                     E5                            A
       e e  e  e  +E   e  e e     e   e   e e   e       e       e     e
       | |  |  |   |   |  | |     |   |   | |   |       |       |     |
       / /  /  /   /   /  / /     /   /   / /   /       /       o     /

                                                \1.5/   \1.5/   \1.5/
   a   Q    E  E  +E   E  Q       E   E   Q    +E      +E      +Q
|-14s=15---15S14-(14)-14S10---|--10--10----------------------------------||
|-----------------------------|-----------------------------------------o||
|-11s=12---12S11-(11)-11S=7---|---7---7-/14---(14)----(14)----(14)-------||
|-----------------------------|------------------------------------------||
|-----------------------------|-----------------------------------------o||
|-----------------------------|------------------------------------------||
|
|      W                         +W
|-----------------------------|------------------------------------------||
|----!10----------------------|-(10)------------------------------------o||
|----!-7----------------------|--(7)-------------------------------------||
|----!-5----------------------|--(5)-------------------------------------||
|-----------------------------|-----------------------------------------o||
|-----------------------------|------------------------------------------||


  2.
                                            A5
   e  e   e e   e       e       e     e       e e  e  e   e   e  e e
   |  |   | |   |       |       |     |       | |  |  |   |   |  | |
   /  /   / /   /       /       o     /       / /  /  /   /   /  / /

                \1.5/   \1.5/   \1.5/
   E  E   Q    +E      +E      +Q             Q    E  E  +E   E  Q
|-10-10---------------------------------||--/19---19-17-(17)-17S12---|
|---------------------------------------||o--------------------------|
|--7--7-/14---(14)----(14)----(14)------||--/16---16-14-(14)-14S=9---|
|---------------------------------------||---------------------------|
|---------------------------------------||o--------------------------|
|---------------------------------------||---------------------------|
|
|  W                                          Q    E  E  +E   E  Q
|---------------------------------------||--/22---22-21-(21)-21S17---|
|-10------------------------------------||o--------------------------|
|--7------------------------------------||--/19---19-18-(18)-18S14---|
|--5------------------------------------||---------------------------|
|---------------------------------------||o--------------------------|
|---------------------------------------||---------------------------|
|
| Gtr V
|  PM---------------------------------|
|  E  E   E E   E       E       E     E       W
|---------------------------------------||---------------------------|
|---------------------------------------||o--------------------------|
|---------------------------------------||---------------------------|
|---------------------------------------||---------------------------|
|--2--2---------------------------------||o--------------------------|
|--0--0---2-0---3-------0-------4-----0-||---------------------------|


                               E5open
   e  e  e  e  e  e  e  e       e e  e  e  +E   e  e e    W
   |  |  |  |  |  |  |  |       | |  |  |   |   |  | |
   /  /  /  /  /  /  /  /       / /  /  /   /   /  / /

   E  E  E  E  E  E  E  E    a  Q    E  E  +E   E  Q      E  E  E  E  E  E  E  E
|-12-12-12-12-12-12-12s14-|-14s15---15S14-(14)-14S10---|-10-10-10-10-10-10-10-10--|
|-------------------------|----------------------------|--------------------------|
|--9--9--9--9--9--9--9s11-|-11s12---12S11-(11)-11S=7---|--7--7--7--7--7--7--7--7--|
|-------------------------|----------------------------|--------------------------|
|-------------------------|----------------------------|--------------------------|
|-------------------------|----------------------------|--------------------------|
|
|  E  E  E  E  E  E  E  E    a  Q    E  E  +E   E  Q      E  E  E  E  E  E  E  E
|-17-17-17-17-17-17s16s17-|-17s19---19S17-(17)-17S15---|-15-15-15-15-15-15-15-15--|
|-------------------------|----------------------------|--------------------------|
|-14-14-14-14-14-14s13s14-|-14s16---16S14-(14)-14S12---|-12-12-12-12-12-12-12-12--|
|-------------------------|----------------------------|--------------------------|
|-------------------------|----------------------------|--------------------------|
|-------------------------|----------------------------|--------------------------|
|
|  W                            W                         W
|-------------------------|----------------------------|--------------------------|
|-------------------------|----------------------------|--------------------------|
|-------------------------|----------------------------|--------------------------|
|-------------------------|----------------------------|--------------------------|
|-------------------------|----------------------------|--------------------------|
|-------------------------|----------------------------|--------------------------|


  A5                                                      E5open
    e e  e  e   e   e  e e    e  e  e  e  e  e  e  e       e e  e  e  +E   e  e e
    | |  |  |   |   |  | |    |  |  |  |  |  |  |  |       | |  |  |   |   |  | |
    / /  /  /   /   /  / /    /  /  /  /  /  /  /  /       / /  /  /   /   /  / /

    Q    E  E  +E   E  Q      E  E  E  E  E  E  E  E    a  Q    E  E  +E   E  Q
|-/19---19-17-(17)-17S12---|-12-12-12-12-12-12-12s14-|-14s15---15S14-(14)-14S10---|
|--------------------------|-------------------------|----------------------------|
|-/16---16-14-(14)-14S=9---|--9--9--9--9--9--9--9s11-|-11s12---12S11-(11)-11S=7---|
|--------------------------|-------------------------|----------------------------|
|--------------------------|-------------------------|----------------------------|
|--------------------------|-------------------------|----------------------------|
|
|   Q    E  E  +E   E  Q      E  E  E  E  E  E  E  E    a  Q    E  E  +E   E  Q
|-/22---22-21-(21)-21S17---|-17-17-17-17-17-17s16s17-|-17s19---19S17-(17)-17S15---|
|--------------------------|-------------------------|----------------------------|
|-/19---19-18-(18)-18S14---|-14-14-14-14-14-14s13s14-|-14s16---16S14-(14)-14S12---|
|--------------------------|-------------------------|----------------------------|
|--------------------------|-------------------------|----------------------------|
|--------------------------|-------------------------|----------------------------|
|
|   W                         W                            W
|--------------------------|-------------------------|----------------------------|
|--------------------------|-------------------------|----------------------------|
|--------------------------|-------------------------|----------------------------|
|--------------------------|-------------------------|----------------------------|
|--------------------------|-------------------------|----------------------------|
|--------------------------|-------------------------|----------------------------|


  1.                                       2.
   W                                        W
               \1.5/   \1.5/   \1.5/             \3
   E  E  Q    +E      +E      +Q            E  E H.
|-10-10---------------------------------||-10-10---------------|
|-------10---(10)----(10)----(10)------o||---------------------|
|--7--7---------------------------------||--7--7p0-------------|
|--------7----(7)-----(7)-----(7)-------||---------------------|
|--------------------------------------o||---------------------|
|---------------------------------------||---------------------|
|
|              \1.5/   \1.5/   \1.5/             \3
|  E  E  Q    +E      +E      +Q            E  E H.
|-15-15---------------------------------||-15-17---------------|
|--------------------------------------o||---------------------|
|-12-12-14---(14)----(14)----(14)-------||-12-14p0-------------|
|---------------------------------------||---------------------|
|-------12---(12)----(12)----(12)------o||---------------------|
|---------------------------------------||---------------------|
|
|  PM--------------------------------|
|  E  E  E E   E       E       E     E      E  E E  E E E E E
|---------------------------------------||---------------------|
|--------------------------------------o||---------------------|
|---------------------------------------||---------------------|
|---------------------------------------||---------------------|
|--2--2--------------------------------o||--2------------------|
|--0--0--2-0---3-------0-------4-----0--||--0--2-2--2-3-3-4-5--|


  A5
    e e  e  e   e   e  e e    e  e  e  e  e  e  e  e
    | |  |  |   |   |  | |    |  |  |  |  |  |  |  |
    / /  /  /   /   /  / /    /  /  /  /  /  /  /  /

    Q    E  E  +E   E  Q      E  E  E  E  E  E  E  E
|-/19---19-17-(17)-17S12---|-12-12-12-12-12-12-12s14-|
|--------------------------|-------------------------|
|-/16---16-14-(14)-14S=9---|--9--9--9--9--9--9--9s11-|
|--------------------------|-------------------------|
|--------------------------|-------------------------|
|--------------------------|-------------------------|
|
|   Q    E  E  +E   E  Q      E  E  E  E  E  E  E  E
|-/22---22-21-(21)-21S17---|-17-17-17-17-17-17s16s17-|
|--------------------------|-------------------------|
|-/19---19-18-(18)-18S14---|-14-14-14-14-14-14s13s14-|
|--------------------------|-------------------------|
|--------------------------|-------------------------|
|--------------------------|-------------------------|


     E5open
      e e  e  e  +E   e  e e    W
      | |  |  |   |   |  | |
      / /  /  /   /   /  / /

   a  Q    E  E  +E   E  Q      E  E  E  E  E  E  E  E
|-14s15---15S14-(14)-14S10---|-10-10-10-10-10-10-10-10-|
|----------------------------|-------------------------|
|-11s12---12S11-(11)-11S=7---|--7--7--7--7--7--7--7--7-|
|----------------------------|-------------------------|
|----------------------------|-------------------------|
|----------------------------|-------------------------|
|
|  a  Q    E  E  +E   E  Q      E  E  E  E  E  E  E  E
|-17s19---19S17-(17)-17S15---|-15-15-15-15-15-15-15-15-|
|----------------------------|-------------------------|
|-14s16---16S14-(14)-14S12---|-12-12-12-12-12-12-12-12-|
|----------------------------|-------------------------|
|----------------------------|-------------------------|
|----------------------------|-------------------------|


  A5
    e e  e  e   e   e  e e    e  e  e  e  e  e  e  e
    | |  |  |   |   |  | |    |  |  |  |  |  |  |  |
    / /  /  /   /   /  / /    /  /  /  /  /  /  /  /

    Q    E  E  +E   E  Q      E  E  E  E  E  E  E  E
|-/19---19-17-(17)-17S12---|-12-12-12-12-12-12-12s14-|
|--------------------------|-------------------------|

|-/16---16-14-(14)-14S=9---|--9--9--9--9--9--9--9s11-|
|--------------------------|-------------------------|
|--------------------------|-------------------------|
|--------------------------|-------------------------|
|
|   Q    E  E  +E   E  Q      E  E  E  E  E  E  E  E
|-/22---22-21-(21)-21S17---|-17-17-17-17-17-17s16s17-|
|--------------------------|-------------------------|
|-/19---19-18-(18)-18S14---|-14-14-14-14-14-14s13s14-|
|--------------------------|-------------------------|
|--------------------------|-------------------------|
|--------------------------|-------------------------|
|
| Gtr V
|   W                         W
|--------------------------|-------------------------|
|--------------------------|-------------------------|
|--------------------------|-------------------------|
|--------------------------|-------------------------|
|--------------------------|-------------------------|
|--------------------------|-------------------------|


     E5open
      e e  e  e  +E   e  e e    W
      | |  |  |   |   |  | |
      / /  /  /   /   /  / /

                                            \1.5/   \1.5/   \1.5/
   a  Q    E  E  +E   E  Q      E  E  Q    +E      +E      +Q
|-14s15---15S14-(14)-14S10---|-10-10--------------------------------*|
|----------------------------|-------10---(10)----(10)----(10)------*|
|-11s12---12S11-(11)-11S=7---|--7--7--------------------------------*|
|----------------------------|--------7----(7)-----(7)-----(7)------*|
|----------------------------|--------------------------------------*|
|----------------------------|--------------------------------------*|
|
|                                           \1.5/   \1.5/   \1.5/
|  a  Q    E  E  +E   E  Q      E  E  Q    +E      +E      +Q
|-17s19---19S17-(17)-17S15---|-15-15--------------------------------*|
|----------------------------|--------------------------------------*|
|-14s16---16S14-(14)-14S12---|-12-12-14---(14)----(14)----(14)------*|
|----------------------------|--------------------------------------*|
|----------------------------|-------12---(12)----(12)----(12)------*|
|----------------------------|--------------------------------------*|
|
|                               PM--------------------------------|
|     W                         E  E  E E   E       E       E     E
|----------------------------|--------------------------------------*|
|----------------------------|--------------------------------------*|
|----------------------------|--------------------------------------*|
|----------------------------|--------------------------------------*|
|----------------------------|--2--2--------------------------------*|
|----------------------------|--0--0--2-0---3-------0-------4-----0-*|


Duration Legend
---------------
W - whole; H - half; Q - quarter; E - 8th; S - 16th; T - 32nd; X - 64th; a - acciaccatura
+ - note tied to previous; . - note dotted; .. - note double dotted
Uncapitalized letters represent notes that are staccato (1/2 duration)
Irregular groupings are notated above the duration line
Duration letters will always appear directly above the note/fret number it represents the
duration for.  Duration letters with no fret number below them represent rests.  Multi-
bar rests are notated in the form Wxn, where n is the number of bars to rest for.  Low
melody durations appear below the staff

Tablature Legend
----------------
 h   - hammer-on
 p   - pull-off
 b   - bend
 pb  - pre-bend
 r   - bend release (if no number after the r, then release immediately)
 /\  - slide into or out of (from/to "nowhere")
 s   - legato slide
 S   - shift slide
  - natural harmonic
[n]  - artificial harmonic
n(n) - tapped harmonic
 ~   - vibrato
 tr  - trill
 T   - tap
 TP  - trem. picking
 PM  - palm muting
\n/  - tremolo bar dip; n = amount to dip
 \n  - tremolo bar down
 n/  - tremolo bar up
/n\  - tremolo bar inverted dip
 =   - hold bend; also acts as connecting device for hammers/pulls
 <>  - volume swell (louder/softer)
 x   - on rhythm slash represents muted slash
 o   - on rhythm slash represents single note slash

Misc Legend
-----------
 |  - bar
||  - double bar
||o - repeat start
o|| - repeat end
*|  - double bar (ending)
 :  - bar (freetime)
 $  - Segno
 &  - Coda
Tempo markers -  = BPM(8/16=s8/s16), where s8 = swing 8ths, s16 = swing 16ths


albums
tabs

 

1