Search tabs:
Browse artists: 0-9 | A | B | C | D | E | F | G | H | I | J | K | L | M | N | O | P | Q | R | S | T | U | V | W | X | Y | Z
/ Joe Satriani / Time Machine (1993) / The Crush of Love guitar tab

Band: Joe Satriani
Song: The Crush of Love
Tabbed by Audio
Thanks to Joe Satriani

Some parts were somewhat hard to transcribe....If you think its wrong try to fix it and post 

a correction. Thank you


				
E----------------|---------------------|----------------|----------|
B----13----13----|-----12--13--15\'-15\'-|--15--13--------|----------|
G-14----14----14-|-14------------------|----------14~~~-|-14-12-14-|
D----------------|---------------------|----------------|----------|
A----------------|---------------------|----------------|----------|
E----------------|---------------------|----------------|----------|


E----------------|-----------------------|--------------|
B----13----13----|-----12--13-/20~-18-17-|-----17-------|
G-14----14----14-|-14--------------------|--19-----17~~-|
D----------------|-----------------------|--------------|
A----------------|-----------------------|--------------|
E----------------|-----------------------|--------------|

E-----15/17-------15/17-----||
B--17------17--17--------17-||
G---------------------------|| End of Intro 
D---------------------------||
A---------------------------||
E---------------------------||


Thats all we have for now. 

Since I don\'t have the full song I will show you the more intense version of this tab. Joe 

Satriani\'s live version of it..With more \"Feeling\" ok here it is.


E-------------------|---------------------|-----------|----------
B----13--13---------|----12--13--15\'-15\'--|-15p13-----|----------
G-14---14--14-12h14~|-14------------------|------14~~-|-14-12-14-
D-------------------|---------------------|-----------|----------
A-------------------|---------------------|-----------|----------
E-------------------|---------------------|-----------|----------


E-----------|--------------|-----------------------|--------------|
B-----------|----13---13---|-----12--13-/20~-18-17-|-----17-------|
G---------12|--14---14--14-|-14--------------------|--19-----17~~-|
D-12-13-14--|--------------|-----------------------|--------------|
A-----------|--------------|-----------------------|--------------|
E-----------|--------------|-----------------------|--------------|


E-----15/17-------15/17-----||
B--17------17--17--------17-||
G---------------------------||
D---------------------------||
A---------------------------||
E---------------------------||

Email everything to Shavin_sum41@hotmail.com


Joe Satriani albums
2004 Is There Love in Space?
2002 Strange Beautiful Music
2000 Engines of Creation
1998 Crystal Planet
1995 Joe Satriani
1993 Time Machine
1992 The Extremist
1989 Flying in a Blue Dream
1987 Surfing With the Alien
1986 Not of This Earth
Time Machine tabs
02The Mighty Turtle Head tabbass tab
07Speed of Light tabbass tab
08Baroque tabbass tab
19The Crush of Love tabbass tab
21Always With Me, Always with You tabbass tab

 

1