Search tabs:
Browse artists: 0-9 | A | B | C | D | E | F | G | H | I | J | K | L | M | N | O | P | Q | R | S | T | U | V | W | X | Y | Z
/ / / guitar tab

UNTITLED TEN
By John Frusciante


Tablature by Paul Caspers

============================

Intro (let ring all notes)
^^^^^
(D#)             (Bb)             (G)              (G)
|-------8--------|----------------|----------------|-------------|
|-------------8--|-----p----------|----------------|-------------|
|----------8-----|----9--7-----7--|-------------3==|===----------|
|----8-----------|----------8-----|---------4------|----4--------|
|-6--------------|----------------|-----5----------|--------5----|
|----------------|-6--------------|-3--------------|-------------|


Verse, repeat throughout most of the song
^^^^^
(D#)           (Bb)           (C)           (C)
|--------------|--------------|-------------|-------------|
|-----------8--|-----------3--|----5--------|----5--------|
|--------8-----|--------3-----|-------5-----|-------5-----|
|-----8--------|-----3--------|----------5--|----------5--|
|-6------------|-1------------|-3-----------|-3-----------|
|--------------|--------------|-------------|-------------|

(D#)           (Bb)           (G)           (G)
|--------------|--------------|-------------|-------------|
|-----------8--|-----------3--|-------------|----h--p-----|
|--------8-----|--------3-----|----------3==|==-3-5--3----|
|-----8--------|-----3--------|-------4-----|-----------4-|
|-6------------|-1------------|----5--------|-------------|
|--------------|--------------|-3-----------|-------------|

- John is playing the same thing on power chords towards the 2nd part of the song, where the
vocals appear.
- There are two additional lead guitars soloing after the intro.


albums
tabs

 

1